the police

Tablature walking on the moon - The Police

833Fans 174tabs
4.67/5
Note cet artiste

Tablature Walking On The Moon, The Police, #3064718

The Police
Walking On The Moon
Tablature
#3064718
mise en tablature par maud24
1/10
sur 5 avis
2/5
          
version gitard a la place de la bass laissez des comantaires (c'est ma 2°tab.) c'a marche sur toutes les cordes :0--0--2--5--4--0--0--0--2--5--4--ETC... ======================================================== Tablature Walking on the moon, de The police ========================================================


L'impression est réservée aux membres Premium
Clique ici pour devenir premium
studiozusic

studiozusic

le 28/02/2014 12:42:40

C'est la basse qui fait ça, en plus ce n'est pas la bonne tonalité. Ce sont des accords pour la guitare.

pierrounet91

pierrounet91

le 26/03/2008 18:11:28

on peut aussi faire comme ça en boucle je pense:


E---0-----0-------2-------5-------4--------0
B---0-----0-------2-------5-------4--------0
D---2-----2-------4-------7-------6--------2
G---2-----2-------4-------7-------6--------2
A---0-----0-------2-------5-------4--------0
E---0-----0-------2-------5-------4--------0

sandinista

sandinista

le 18/11/2007 20:17:44

Oui, tu as raison, ça marche sur toutes les cordes, seulement tu ne peut pas jouer par dessus le titre origine car tu n'est plus dans la tonalité du morceau.

Essaye cela en boucle :

e--------------------3-----------------------------
B--------------------3-----------------------------
D--------------------5-----------------------------
G--------------------3--------3----2---------------
A---3----3---5------5------------------3-----------
E--------------------------------------------------

Essaye de glisser cer accord au nom barbare ( Dm7add11 ) au milieu.
Effet garanti.

Bonne tablature de débutant.

walking on the moon the police tab

Cette Tablature de the police est la création ou l'interprétation personnelle de l'artiste qui l'a déposé.
Conformément aux dispositions du Code de la Propriété Intellectuelle, seule l'utilisation de cette représentation pour un usage privé, réduite au cercle de famille, et la reproduction (impression, téléchargement) pour un usage strictement personnel, sont autorisés.
Rappel : Pour se conformer aux lois sur la propriété intellectuelle, les paroles de chansons ne sont pas autorisées sur Partoch.com. Retour aux Tablatures de the police.
Partage cette tab sur :

Vous pouvez ajouter la tablature de votre interprétation walking on the moon de the police, ou simplement les accord walking on the moon de the police en cliquant sur déposer une tablature de the police, ou modifier et supprimer votre tablature en vous rendant directement sur celle-ci



L'impression est réservée aux membres Premium
Clique ici pour devenir premium