Tablature by the way - Red Hot Chili Peppers

5628Fans 2185tabs
4.76/5
Note cet artiste

Tablature By The Way, Red Hot Chili Peppers, #3046108

Red Hot Chili Peppers
By The Way
Tablature
#3046108
4/10
sur 74 avis
4/74
          
Longue....pas trop, compliquer....pa le debut....tout juste....je ne suis pas sur....mais amusé vous quand meme Intro e---------------------------|----------------------------| B---------------------------|----------------------------| G---------------------------|----------------------------| D---10-10-10-10-10-10-10-10-|--10-10-10-10-10-10-10-10---| A----8--8--8--8--8--8--8--8-|---7--7--7--7--7--7--7--7---| E---------------------------|----------------------------| e---------------------------|----------------------------| B---------------------------|----------------------------| G---------------------------|----------------------------| D----2--2--2--2--2--2--2--2-|---2--2--2--2--2--2--2--2---| A----0--0--0--0--0--0--0--0-|---0--0--0--0--0--0--0--0---| E---------------------------|----------------------------| Standing in line..... e---------------------------|----------------------------| B---------------------------|----------------------------| G---------------------------|----------------------------| D---10-10-10-10-10-10-10-10-|--10-10-10-10-10-10-10-10---| A----8--8--8--8--8--8--8--8-|---7--7--7--7--7--7--7--7---| E---------------------------|----------------------------| e---------------------------|----------------------------| B---------------------------|----------------------------| G---------------------------|---------------9--9--7--7---| D----7--7--7--7--7--7--7--7-|---7--7--7--7---------------| A----0--0--0--0--0--0--0--0-|---0--0--0--0---------------| E---------------------------|----------------------------| by the way...... e---------------------------|----------------------------| B---------------------------|----------------------------| G---------------------------|----------------------------| D---10-10-10-10-10-10-10-10-|---5--5--5--5--5--5--5--5---| A----8--8--8--8--8--8--8--8-|---3--3--3--3--3--3--3--3---| E---------------------------|----------------------------| e---------------------------|----------------------------| B---------------------------|----------------------------| G---------------------------|----------------------------| D----2--2--2--2--2--2--2--2-|---2--2--2--2--2--2--2--2---| A----0--0--0--0--0--0--0--0-|---0--0--0--0--0--0--0--0---| E---------------------------|----------------------------| Dani the girl....... e---------------------------|----------------------------| B---------------------------|----------------------------| G---------------------------|---9--9--9--9--9--9--9--9---| D---10-10-10-10-10-10-10-10-|--10-10-10-10-10-10-10-10---| A----8--8--8--8--8--8--8--8-|----------------------------| E---------------------------|----------------------------| e---------------------------|----------------------------| B---------------------------|----------------------------| G----9--9--9--9--9--9--9--9-|---9--9--9--9--9--9--9--9---| D----7--7--7--7--7--7--7--7-|---7--7--7--7--7--7--7--7---| A---------------------------|----------------------------| E---------------------------|----------------------------| Chorus: F C Dm , F C Am A# For the verses just play the G, B, and E strings muted on the 10th fret. that is all.submit any comments of corrections to jm2k@hotmail.com ======================================================== Tablature By the way, de Red hot chili peppers ========================================================

Am chord
A# chord
Dm chord
C chord
E chord
F chord

L'impression est réservée aux membres Premium
Clique ici pour devenir premium

julyo

le 24/02/2011 16:01:27

Paul, si t'a de quoi payer va sur magic tab et la tu la troiuveras entière
Sinon geniale la tab bien qu'un peu courte à mon avis :)

paul.g

le 13/03/2010 09:36:03

super la tab ! seulement est-ce que quelqu'un sait ou je pourrais trouver la tablature COMPLETE de ce morceau sil vous plait c'est important ; )

firewall

le 08/11/2009 19:14:30

cool

jimi chris

le 04/06/2009 11:06:10

En fait chui un peut débutant je joue super bien mais je connais pas les notes qui correspondent tu pourais mettre le reste pliz ??


4/5 =)

un inconnu

le 18/05/2009 19:59:34

Super tab' mais l'vant dernier accord me parait bizarre ...
T'es sur de toi ? =p

un inconnu

le 11/04/2009 18:32:06

jaimeré que qulqu'un met la tablature un peu simplifié de l'intro de snow(red hot chili peppers) merci!!!!!!!!!!!!!!!!!!!!!!!

un inconnu

le 01/03/2009 20:23:10

plus que parfaite cette tab' bonne gratte http://power-pop-corn.skyrock.com c'est mon groupe

un inconnu

le 03/11/2008 12:24:58

J'adore ta tablature
Elle est nickel
Bravo

darktibo

le 19/08/2008 12:38:38

Super tablatures, quelques faux accords mais sinon rien a dire : merci pour la tablature !

valou-du-28

le 13/07/2008 15:12:45

pas mal la tab mais je pense plutôt 1/10 ^^
Bonne gratte!

strat7515

le 05/07/2008 19:59:13

salut tou l'monde ! perso je trouve que la tab d'origine colle le mieu avc celles proposées même si elle est a améliorer ... bonne gratte a tou le monde !

jujufandesredhot

le 29/06/2008 15:22:19

tout a fait d'acord avec laulauk

louloudu31

le 03/04/2008 19:09:18

extra mais 1 ou 2 sur 10.^^

un inconnu

le 03/04/2008 12:35:55

tre bonne tab mai jsui sac ak lalauk mai la tienne sone pas trop mal nn plus bn boulot mec

un inconnu

le 07/03/2008 20:18:34

supére en plus graçe aux repére de chant on peut chanter avec !! merci beaucoup

un inconnu

le 29/02/2008 19:46:55

bien mais c'est trop simple

fabio776

le 22/02/2008 20:24:49

Bien ! Mais 4/10 c'est trop dur pour ce que c'est... J'aurais mis 1 ...

iordanoffff

le 19/02/2008 20:11:37

Parfait bravo deux trrois endroits ou ça sonne pas super juste mais bon... smile

un inconnu

le 14/02/2008 19:04:35

et ben y a des commentaire ici

christouf

le 14/11/2007 13:47:50

je la trouve térible
BRAVO!!!!mec

ptitecatrelle

le 30/10/2007 18:33:44

cc bonne tab mé eske kelk1 pôuré me dir cmt on fé un A# svp

un inconnu

le 22/09/2007 16:46:58

franchement vous trouvez pas que sa sonne mieu comme sa ?

e---------------------------|----------------------------|
B-1-1-1-1-1-1-1-1-----------|-1-1-1-1-1-1-1-1-----------
G---------------------------|----------------------------|
D-3-3-3-3-3-3-3-3-----------|-2-2-2-2-2-2-2-2------------|
A---------------------------|----------------------------|
E---------------------------|----------------------------|

e---------------------------|---------------------------
B---------------------------|----------------------------
G---------------------------|----------------------------|
D-2-2-2-2-2-2-2-2-----------|-2-2-2-2-2-2-2-2------------
A-0-0-0-0-0-0-0-0-----------|-0-0-0-0-0-0-0-0------------|
E---------------------------|----------------------------|

VOUS TROUVEZ PAS ? en plus c'est moin galère aller bonne gratte ^^

un inconnu

le 22/09/2007 16:46:57

franchement vous trouvez pas que sa sonne mieu comme sa ?

e---------------------------|----------------------------|
B-1-1-1-1-1-1-1-1-----------|-1-1-1-1-1-1-1-1-----------
G---------------------------|----------------------------|
D-3-3-3-3-3-3-3-3-----------|-2-2-2-2-2-2-2-2------------|
A---------------------------|----------------------------|
E---------------------------|----------------------------|

e---------------------------|---------------------------
B---------------------------|----------------------------
G---------------------------|----------------------------|
D-2-2-2-2-2-2-2-2-----------|-2-2-2-2-2-2-2-2------------
A-0-0-0-0-0-0-0-0-----------|-0-0-0-0-0-0-0-0------------|
E---------------------------|----------------------------|

VOUS TROUVEZ PAS ? en plus c'est moin galère aller bonne gratte ^^

dam8

le 24/08/2007 09:29:04

excellente tablature(les autres options citées plus haut sont valables aussi)

un inconnu

le 21/07/2007 20:33:54

ouai mec elle est simpa cette tab ....

zakouille

le 11/07/2007 14:47:28

trop bonne tab!! bien réussi
casiment rien a dir!!
bien joué

leguman01

le 07/06/2007 19:17:52

merci ça sonne bien et c'est assez facil (1 ou 2 /10) :)

leguman01

le 07/06/2007 19:17:42

merci ça sonne bien et c'est assez facil (1 ou 2 /10) :)

knight_gunner

le 29/04/2007 14:05:42

trés bien "tabbé" !!!
et c'est facile....
plutot 1/10, pas 4/10 icon_cheesygrin
continue !

8.?

le 21/04/2007 21:25:19

merci d'exposer ta science afiboy, mais nimporte quel gratteur le sait, c'est juste que

e---------------------------|----------------------------|
B---------------------------|----------------------------|
G---------------------------|----------------------------|
D---10-10-10-10-10-10-10-10-|--10-10-10-10-10-10-10-10---|
A----8--8--8--8--8--8--8--8-|---7--7--7--7--7--7--7--7---|
E---------------------------|----------------------------|

e---------------------------|----------------------------|
B---------------------------|----------------------------|
G---------------------------|----------------------------|
D---------------------------|----------------------------|
A---7-7-7-7-7-7-7-7---------|---7-7-7-7-7-7-7-7----------|
E---5-5-5-5-5-5-5-5---------|---5-5-5-5-5-5-5-5----------|

, c'est plus "pratique" a jouer. Sinon, bonne tablature, par contre on sait pas trop ce qui se passe pendant les couplets.

un inconnu

le 11/04/2007 13:19:45

royal merci :)

un inconnu

le 26/03/2007 20:43:13

e---------------------------|----------------------------|
B---------------------------|----------------------------|
G---------------------------|----------------------------|
D---10-10-10-10-10-10-10-10-|--10-10-10-10-10-10-10-10---|
A----8--8--8--8--8--8--8--8-|---7--7--7--7--7--7--7--7---|
E---------------------------|----------------------------|

e---------------------------|----------------------------|
B---------------------------|----------------------------|
G---------------------------|----------------------------|
D----2--2--2--2--2--2--2--2-|---2--2--2--2--2--2--2--2---|
A----0--0--0--0--0--0--0--0-|---0--0--0--0--0--0--0--0---|
E---------------------------|----------------------------|


OU

e---------------------------|----------------------------|
B---------------------------|----------------------------|
G---------------------------|----------------------------|
D---10-10-10-10-10-10-10-10-|--10-10-10-10-10-10-10-10---|
A----8--8--8--8--8--8--8--8-|---7--7--7--7--7--7--7--7---|
E---------------------------|----------------------------|

e---------------------------|----------------------------|
B---------------------------|----------------------------|
G---------------------------|----------------------------|
D---------------------------|----------------------------|
A---7-7-7-7-7-7-7-7---------|---7-7-7-7-7-7-7-7----------|
E---5-5-5-5-5-5-5-5---------|---5-5-5-5-5-5-5-5----------|



C'est la même chose !(si ta gratte est bien évidemment accordée !) La 5ème case de la corde de mi est un LA ! ce qui est équivalent à la deuxième corde à vide. La 7ème case de la corde de LA est un MI, ce qui corresponds à la deuxième case de la corde de Ré !
Alors quand on a aucune notion de solfège, et que l'on ne connait même pas les notes de son instrument, on évite de poster des commentaires débiles laulauk...
Bref, une bonne tab quand même !
Bon gratte à tous et toutes !

un inconnu

le 21/03/2007 18:35:59

4/10... 1 sur 10 plutôt. :)

bestskater

le 01/03/2007 14:20:09

t trop doué continu comme ça c'est trop bien

un inconnu

le 28/01/2007 01:32:47

bravo merci encore c'est trop bien en plus jadore les red hot ! enjoy ^^

un inconnu

le 18/01/2007 19:32:26

Super merci
bonne tab

PS: Pratique les reperes de paroles

un inconnu

le 02/01/2007 22:28:00

pas mal pas mal c'est super cool et ça sonne juste. merci bcp!

un inconnu

le 01/01/2007 15:26:20

ouais il a réson le laulauk sa le fait mieux je trouve aussi

un inconnu

le 30/12/2006 13:02:03

e---------------------------|----------------------------|
B---------------------------|----------------------------|
G---------------------------|----------------------------|
D---10-10-10-10-10-10-10-10-|--10-10-10-10-10-10-10-10---|
A----8--8--8--8--8--8--8--8-|---7--7--7--7--7--7--7--7---|
E---------------------------|----------------------------|

e---------------------------|----------------------------|
B---------------------------|----------------------------|
G---------------------------|----------------------------|
D---------------------------|----------------------------|
A---7-7-7-7-7-7-7-7---------|---7-7-7-7-7-7-7-7----------|
E---5-5-5-5-5-5-5-5---------|---5-5-5-5-5-5-5-5----------|

je la ferais plutot comme ca, ça sonne plus juste je trouve (AVIS PERSONNEL)

un inconnu

le 02/12/2006 20:12:31

magnifique aussi

mais le chorus je ne le repére pas bien peut-on m'aider ?

un inconnu

le 11/11/2006 12:27:49

cette tab est absolument parfaite, la reference!!!!!!!!!!!!

un inconnu

le 03/11/2006 11:11:17

cette tablatue est tt simplement terrible

un inconnu

le 26/10/2006 10:32:56

j'adore cette tab ^^

un inconnu

le 22/10/2006 17:01:37

sa serais bien si tu mété le refrin en tablure
sinon elle est parfaite

un inconnu

le 13/10/2006 18:49:56

LE LA CROILLER PLUS DURE

un inconnu

le 20/09/2006 21:32:52

Pas mal du tout, mais pas tout à fais exacte

le_ranger-barbare

le 20/09/2006 17:30:44

trop fort red hot pas mal la tab lol

By The Way red hot chili peppers tab

Cette Tablature de red hot chili peppers est la création ou l'interprétation personnelle de l'artiste qui l'a déposé.
Conformément aux dispositions du Code de la Propriété Intellectuelle, seule l'utilisation de cette représentation pour un usage privé, réduite au cercle de famille, et la reproduction (impression, téléchargement) pour un usage strictement personnel, sont autorisés.
Rappel : Pour se conformer aux lois sur la propriété intellectuelle, les paroles de chansons ne sont pas autorisées sur Partoch.com. Retour aux Tablatures de red hot chili peppers.
Partage cette tab sur :

Vous pouvez ajouter la tablature de votre interprétation by the way de red hot chili peppers, ou simplement les accord by the way de red hot chili peppers en cliquant sur déposer une tablature de red hot chili peppers, ou modifier et supprimer votre tablature en vous rendant directement sur celle-ci



L'impression est réservée aux membres Premium
Clique ici pour devenir premium