LINKIN PARK

Tablature numb

Linkin Park
Métal
Ajouter à mes artistes favoris
Format : Tablature 'numb, Linkin park
Version #3075070 mise en tablature par quentin25
Difficulté : 2/10
Note : 4/5 sur 23 avis

Tablature 'numb, Linkin park

numb linkin park /-----10-13--10--15--18--17---10--13--10--18--17--13--/ /-----------------------------------------------------/ /-----------------------------------------------------/ /-----------------------------------------------------/ /-----------------------------------------------------/ durant toute l'intro /-----------------------------------------------------/ /---------------------------------------/ jusqua la fin, /---------------------------------------/ /---5----1----8----5--------------------/ on peut faire autrement demandé moi si vou trouverque sa va po tro /---5----1----8----5--------------------/ mettez des com merci /---------------------------------------/ /---------------------------------------/

Note cette tablature :



Connecte toi pour déposer un commentaire sur cette tablature !

Vos avis sur la tablature 'numb de linkin park #3075070


alex06210

alex06210

le 09/05/2013 14:44:36

j'adore icon_cheesygrin merci pour la tab


thomas03170

thomas03170

le 23/04/2013 12:19:02

le refrain plutot :
-----------------------------------------------------------
-----------------------------------------------------------
----5-----1-----8-----3----------------------------------
----5-----1-----8-----3-----------------------------------
-----------------------------------------------------------
-----------------------------------------------------------


Inconnu...

Inconnu...

le 26/07/2012 22:41:36

alice013 je trouve sa mieux aussi wink tu pourrais la publier cela serait mieux ! car celle-ci nous induit en erreur :)


catch43

catch43

le 06/07/2012 09:22:22

alice013 je trouve que c'est mieux


Inconnu...

Inconnu...

le 16/06/2012 12:10:35

Moi j'y ai jouer au pif et j'aimerais l’avis de de quelqu'un si sa y ressemble ou pas

-------------------------12--15--14------------15--14----
-------------12--15--12-------------12--15--12---------15
---------------------------------------------------------
---------------------------------------------------------
---------------------------------------------------------
---------------------------------------------------------


star-blade

star-blade

le 31/12/2011 16:18:25

Hello ça sonne mieux comme ceci je trouve

/-----8-11--8--13--16--15---8--11--8--16--15--11--/
/-----------------------------------------------------/
/-----------------------------------------------------/
/-----------------------------------------------------/
/-----------------------------------------------------/
/-----------------------------------------------------/


elvis59160

elvis59160

le 05/10/2011 16:07:59

pas mal


tinou16

tinou16

le 04/10/2011 17:58:32

pas mal :) je débute et je trouve que c'est simple a jouer pour le résultat !


Play Guitar With... Linkin Park (partition+cd)

Play Guitar With... Linkin Park (Partition+CD)
Type : Partition
Edition Amscowyse

26,10 €

tablature 'numb linkin park

Cette Tablature 'numb de linkin park est la création ou l'interprétation personnelle de l'artiste qui l'a déposé.
Conformément aux dispositions du Code de la Propriété Intellectuelle, seule l'utilisation de cette représentation pour un usage privé, réduite au cercle de famille, et la reproduction (impression, téléchargement) pour un usage strictement personnel, sont autorisés.
Rappel : Pour se conformer aux lois sur la propriété intellectuelle, les paroles de chansons ne sont pas autorisées sur Partoch.com. Retour aux Tablatures de linkin park.