Tablature feel good inc - Gorillaz

565Fans 184tabs
4.76/5
Note cet artiste

Tablature feel good inc, Gorillaz, #3054634

Gorillaz
Feel Good Inc
Tablature
#3054634
mise en tablature par flandwich
1/10
sur 18 avis
Demon Days
Demon Days
Songbook Officiel
Edition Alfred Publishing
Voir toutes les partitions de gorillaz
4/18
          
GORILLAZ - Feel good Inc. G|---------------------------------| D|---------------------------------| A|---------------------------------| E|-0--0-2-3-8-7----5--5-8-7-3-0----| C'est pas dur et ca sonne bien... ======================================================== Tablature Feel good inc. pour Basse, de Gorillaz ========================================================


L'impression est réservée aux membres Premium
Clique ici pour devenir premium

v3ctor

le 16/06/2019 18:08:00

c'est plus simple
G-------------------------------
D--------------------------------
A-----------3-2-0-0-3-2----------
E-0--0-2-3---------------3-0-12--

clementlerouge

le 17/01/2019 12:57:43

elle est bien mais c'est est pas plutt a
G|---------|
D|---------|
A|---------|
E|-0--0-2-3-8-7----5--5-7-8-7-0----|

ninoonah

le 04/12/2014 15:20:43

Navre rcalvin mais ta tab sonne faux, celle de skajongle au contraire est juste.

rcalvin

le 05/03/2014 11:27:42

skajongle sache que ta tablature sonne moins bien mais sinon elle est pas mal ce que je propose en dessous est pour ceux ayant un petit cart de doigts donc plus facile essayer de moi en des nouvelles wink
G|---------------------------------|
D|---------------------------------|
A|----------5-4----0--0-5-4--------|
E|-0--0-2-3-----------------3-0----|

rcalvin

le 04/03/2014 17:56:43

skajongle sache que ta tablature sonne moins bien mais sinon elle est pas mal ce que je propose en dessous est pour ceux ayant un petit cart de doigts donc plus facile essayer de moi en des nouvelles wink
G|---------------------------------|
D|---------------------------------|
A|----------5-4----0--0-5-4--------|
E|-0--0-2-3-----------------3-0----|

rcalvin

le 04/03/2014 17:56:15

skajongle sache que ta tablature sonne moins bien mais sinon elle est pas mal ce que je propose en dessous est pour ceux ayant un petit cart de doigts donc plus facile essayer de moi en des nouvelles wink
G|---------------------------------|
D|---------------------------------|
A|----------5-4----0--0-5-4--------|
E|-0--0-2-3-----------------3-0----|

baradwis

le 05/02/2014 16:57:18

gnial

gileam

le 15/10/2009 21:18:48

C'est vrai que c'est plus simple a jouer ^^

skajongle

le 05/12/2008 11:26:07

Pourquoi tu te fatigue descendre en 8-7? C'est beaucoup plus peinard de se la jouer:
G|---------------------------------|
D|---------------------------------|
A|----------3-2----0--0-3-2--------|
E|-0--0-2-3-----------------3-0----|

papaseb

le 25/10/2008 17:32:09

super tablature et facile

Feel good Inc. gorillaz tab

Cette Tablature de gorillaz est la création ou l'interprétation personnelle de l'artiste qui l'a déposé.
Conformément aux dispositions du Code de la Propriété Intellectuelle, seule l'utilisation de cette représentation pour un usage privé, réduite au cercle de famille, et la reproduction (impression, téléchargement) pour un usage strictement personnel, sont autorisés.
Rappel : Pour se conformer aux lois sur la propriété intellectuelle, les paroles de chansons ne sont pas autorisées sur Partoch.com. Retour aux Tablatures de gorillaz.
Partage cette tab sur :

Vous pouvez ajouter la tablature de votre interprétation feel good inc de gorillaz, ou simplement les accord feel good inc de gorillaz en cliquant sur déposer une tablature de gorillaz, ou modifier et supprimer votre tablature en vous rendant directement sur celle-ci



L'impression est réservée aux membres Premium
Clique ici pour devenir premium