Blue Foundation -Eyes on fire-

close
FILTRES DE LA RECHERCHE

Bonjour!

Je cherche la tablature de Blue Foundation : Eyes on fire
(Basse)

Merci.

Salut genoxr,

D'après ce que j'ai joué je crois que la tablature est la suivante:

(blue foundation - eyes on fire)


e|-------------------------------------------------------------------------|
B|-------------------------------------------------------------------------|
G|-------------------------------------------------------------------------|
D|-------------------------------------------------------------------------|
A|-----3-----5---3~--------3-----5---3~--3-3-2-----------------------------|
E|-0-0---0-0---0-------0-0---0-0---0---------------------------------------|

e|-------------------------------------------------------------------------|
B|-------------------------------------------------------------------------|
G|-------------------------------------------------------------------------|
D|-----5-----7---5~--------5-----7---5~--5-5-4-----------------------------|
A|-----3-----5---3~--------3-----5---3~--3-3-2-----------------------------|
E|-0-0---0-0---0-------0-0---0-0---0---------------------------------------|


Voila et bonne gratte :) smiley-guitar

Arf autant pour moi j'ai mal lu , la c'est pour guitare... désolé ><

soit c'est moi qui n'ai pas une bonne écoute soit la tab est fausse psk sa va pas avc la chanson. =s


1 message
icon_cheesygrin
Merci !!! bravo


1 message
Je suis d'accord avec toi.
Ça sonne affreusement faux.
Pas 'rav. icon_redface

Je suis d'accord avec vous, c'est pas une bonne tab. Et puis l y'a que l'intro, le mieux serait de trouver le tab entière. Bref, arrêtons de triquiter. ...Pardon, critiquer.






>> Plan du Forum Tablatures | suivi de la discussion | Tags : blue, eyes, fire, foundation, bonjour, cherche, tablature, merci, basse

+