It was probably me

close
FILTRES DE LA RECHERCHE


4 messages
Bonjour,

Je rencontre un p'tit problème pour déchiffrer cette tablature. Est-ce qu'une bonne ame charitable pourrait venir à mon secours? Il ya un décalage de ligne et je n'arrive pas à les remettre correctement dans l'ordre...
http://www.fretplay.com/tabs/s/sting/its_probably_me-tab.shtml

Par avance merci.
Guitaristiquement votre, Yves.


God of Partoch
Petit tabber
1 photo
15190 messages
Modérateur
aille c'est la poisse ça ...
les lignes pas complètes se mettent au bout de la ligne d'avant ...
à tout hasard t'as tenté de te faire un copié collé sur une page word ?

image du forum
la musique c'est comme l'amour seul c'est bien à plusieurs c'est mieux !
image du forum

4 messages
Merci pour ta réponse. J'ai bien essayé de faire un copié/collé sur WORDS... Pire, une vrai cata. On dirait un message crypté par le KGB.


God of Partoch
Petit tabber
Petit Downloader
11 photos
13079 messages
Modérateur
tu peux coller sous format word,
tout selectionner,
passer en police courrier news, taille 8 ou 9

ensuite, tu fais un suppr à la fin de chaque ligne qui pose probleme,
mais uniquement ces lignes là,

et ca marche à peu pres...

connais meme pas l'titre! icon_redface


4 messages
Merci Pascal,
Je vais essayer... Le morceau est la musique de l'arme fatal avec Mel Gibson. C'est un très bon blues. Ca mérite le détour. Je pense que tu l'as déjà entendu.
Guitaristiquement votre, Yves.


4 messages
Je dois être encore plus nul sur WORD qu'en guitare... Et c'est peu de le dire. Pascal 17, si tu as réussi à avoir un résultat à peu près correct, peux-tu me l'envoyer par mail? Ce serait vraiment sympa, je veux absolument arriver à jouer cette version.
Guitaristiquement votre, Yves.


God of Partoch
Petit tabber
Petit Downloader
11 photos
13079 messages
Modérateur
fais un copié-collé,
sur un bloc-note,
ou sur word Police: COURRIER NEWS

IT'S PROBABLY ME
Intro:
C C C
---------------------------------------------
--1-1-1------1-1-1------1-1-1-----1-1-1^3--
--0-0-0------0-0-0------0-0-0-----0-0-0^0--
--2-2-2------2-2-2------2-2-2-----2-2-2^4--
--3-3-3------3-3-3------3-3-3-----3-3-3^5--
----------------------------------------------

Verse:
A:
Em Em Em Em Am D Em Em
--0-0-0-----0-0-0------0-0-0-----0-0-0------------------------0-0-0------0-0-0-
--5-5-5-----5-5-5------5-5-5-----5-5-5-----1-1-1----3-3-3-----5-5-5------5-5-5-
--4-4-4-----4-4-4------4-4-4-----4-4-4-----2-2-2----2-2-2-----4-4-4------4-4-4-
--2-2-2-----2-2-2------2-2-2-----2-2-2-----2-2-2----0-0-0-----2-2-2------2-2-2-
-------------------------------------------0-0-0--------------------------
----------------------------------------------------------------------------

Am D Em ? D? Em Em
---------------------0-0-0----------------------------------0-0-0-------0-0-0--
--1-1-1-----3-3-3----5-5-5------5-------3-3-3-----3-3-3-----0-0-0-------5-5-5--
--2-2-2-----2-2-2----4-4-4------4-------2-2-2-----4-4-4-----0-0-0-------4-4-4--
--2-2-2-----0-0-0----2-2-2------5-------0-0-0-----0-0-0-----2-2-2-------2-2-2--
--0-0-0-------------------------4-----------------2-2-2-----2-2-2-------2-2-2--
------------------------------------------------------------0-0-0-------0-0-0--

Repeat A)

Key Change
C D G Em F#mG F#mAm
Am D G
---1-1-1----------------------------------------------------------------------------
---0-0-0-----3-3-3---------------------------8------------------7-7-7------------
---2-2-2-----2-2-2-----4-4-4--------0--2--4--7--5------5-5-5----7-7-7----4-4-4--
---3-3-3-----0-0-0-----5-5-5--------2--4--5--9--7------7-7-7----7-7-7----5-5-5---
-----------------------5-5-5--------2--4--5--10-7------7-7-7----5-5-5----5-5-5--
-----------------------3-3-3-----2--0--2--3--7--5------5-5-5-------------3-3-3--


G C C G F#mG Em D? Em Em
-----------------------------3--2--3--0-------------------------------------------
---3-------5-5-5----7-7-7----3--2--3--0----3-3-3----3-3-3---------------------
---4-------5-5-5----7-7-7----4--2--4--0----2-2-2----4-4-4----0-0-0----0-0-0---
---5-------5-5-5----7-7-7----5--4--5--2----0-0-0----0-0-0----2-2-2----2-2-2---
---5-------3-3-3----5-5-5----5--4--5--2-------------2-2-2----2-2-2----2-2-2--
---3-------------------------3--2--3--0----------------------0-0-0----0-0-0---

Solo guitar (stratocaster)

----------------------------------------------------------------------------------------10 bend
full--10---8h10-8----/12------------------------------------------------------------------
-------------------------------------12----------------------------------------------
-----------------------------------------14--12---------------------------12--------
-------------------------------------------------14--12--12------12--14-----14p12--
--------------------------------------------------------------------------------------


-------------------------------------------------------------------------
-------------------------------------------------------8p7p5--3--5--5---
----------------------------------12--------------------------------------
--------------12-14-12-14--14------16-14-12-14-16---------------------
-----------14-------------------------------------------------------------
--15p12------------------------------------------------------------------



-------------------
----3--------------
-/4--4-4p2p0------ sax solo and more guitar solo fade to end.
--------------2----
-------------------
-------------------


God of Partoch
Petit tabber
Petit Downloader
11 photos
13079 messages
Modérateur
chez moi ca marche impec.

sinon passe moi ton mail,
par un de mes sites...






>> Plan du Forum Tablatures | suivi de la discussion | Tags : CLAPTON, ame, bonne, charitable, pourrait, calage, secours, venir, -ce

+