Bloquer sur adam's Song de blink 182, quelqu'un peut m aider ?

close
FILTRES DE LA RECHERCHE

Bonjour a vous les zicos !

ça fait un an que je voudrais adam's song de Blink, mais je suis bloquer sur la tablature (que voici : http://www.partoch.com/artistes/tablature,BLINK+182,ADAM+S+SONG,3038895.html).

Comment dois je m y prendre pour jouer ce morceau ?

--------------------------|----------------------------------|
--------------------------|----------------------------------|
--9--9--9--9--9--9--9--9--|--10--10--10--10--10--10--10--10--|
--x--x--x--x--x--x--x--x--|--x---x---x---x---x---x---x---x---|
--7--7--7--7--7--7--7--7--|--8---8---8---8---8---8---8---8---|
--------------------------|----------------------------------|



--------------------------|----------------------------------|
--------------------------|----------------------------------|
--9--9--9--9--9--9--9--9--|--10--10--10--10--10--10--10--10--|
--x--x--x--x--x--x--x--x--|--x---x---x---x---x---x---x---x---|
--7--7--7--7--7--7--7--7--|--8---8---8---8---8---8---8---8---|
--------------------------|----------------------------------|

il me manque plus que ça et je pourrais la jouer en entier ! help me please ! ! ! ! !

Merci a ceux qui me répondront d'avance !
bonne soirée/journée a vous tous !


God of Partoch
Petit tabber
1 photo
15150 messages
Modérateur
tu amorti le son de la corde du milieu avec un doigt.

image du forum
la musique c'est comme l'amour seul c'est bien à plusieurs c'est mieux !
image du forum
c'est a dire ?

je pince pas la corde, mais il faut que touche quand même la corde du bout du doigt c'est bien sa ?

(ouais je suis débutant icon_redface )


Pilier de Forum
1065 messages
très très simple en fait l'index en appuyant sur la corde de MI (E) étouffe le son des 5 autres cordes alors que le majeur vient se poser sur la corde de Ré(D)!

En fait c'est comme si tu faisait "barré" sauf que ton index ne joue que la corde de MI et de ce fait bloque les autres cordes!


Artiste en devenir
635 messages
Une petite image en plus de l'explication explicite :

image du forum

Comment ça c'est inutile ? icon_redface


Pilier de Forum
1065 messages
c'est ce qu'on appel du team-play cher lordi :) bravo

c comme une death note.sa fais 1 an et tu savait pas lire sa?


2 photos
1 message
Coucou
Alors voilà cela fait un moment que j'essaye de jouer adam's song de blink 182 mais je n'arrive pas à trouver comment bien accorder ma gratte pour que ça sonne comme dans la chanson =$
Si quelqu'un pouvais m'aider.
Merci et bonne gratte a tous smiley-guitar






>> Plan du Forum Tablatures | suivi de la discussion | Tags : ---, blink, song, adam, jouer, bloquer, tablature, les, artistes

+