Jouer seulement les deux codes de MI

close
FILTRES DE LA RECHERCHE

hitman94

Petit causeur
19 messages
Bonjour tout le monde, je viens d'avoir ma jolie guitare a noel ( une peavey electrique ) et j'essaye actuellement le morceau "Nothing else matters" de mettalica ( niveau débutant ) et je tombe la dessus :
E E E E E E E E E S S E E E E E E E E E S S E
-----------0-----7--|--7--------7p-0-------|--------7--8--7--5--|--7--5p-3-0--|
--------0-----0-----|-----0----------0-----|--------0--0--0-----|--0--0-------|
-----0--------------|--------0----------0--|-----0--------------|-------------|
--------------------|----------------------|--------------------|-------------|
--------------------|----------------------|--------------------|----------0--|
--0-----------------|--0-------------------|--0-----------------|--L----------|


C'est juste apres le premier trait verticale, les deux note de mi en même temps, comment les jouer ( j'ai un mediator )

Puis pour la suite de la chanson je prefere pas regarder ^^

hitman94
hitman94 a écrit :

C'est juste apres le premier trait verticale, les deux note de mi en même temps, comment les jouer ( j'ai un mediator )

Puis pour la suite de la chanson je prefere pas regarder ^^

Il faudrait que tu les joue au doigts en fait hum wink smile_cool

hitman94

Petit causeur
19 messages
toute la chanson?


Petit causeur
71 messages
Ben je suis débutant donc t'es pas obligé de me croire, et j'ai un doute. Mais je crois qu'il te faut presser les notes, puis a la place de gratter avec un doigt tu grattes simulaténement avec 2 doigts pour jouer 2 notes en meme temps qui ne sont pas sur la meme "ligne" si on veut. Enfin c'est comme ca que je fais wink

hitman94
hitman94 a écrit :
toute la chanson?

pas obligé moi je la joue au médiator et a 2 notes en même temps je coince le médiator et j'utilise mon majeur et puis le pouce ; c'est dur à exppliquer

hitman94

Petit causeur
19 messages
C'est peut être pas la meilleur chanson pour débuter ^^

hitman94

Petit causeur
19 messages
J'ai le probleme aussi avec highway to hell de AC/DC :
---------------------------------------------------
---------------------------------------------------
---2-2-2------2-2-2------2-2-2---2-2-2---2---2-2---
---2-2-2------0-0-0------0-0-0---0-0-0---0---2-2---
---0-0-0-------------------------------------0-0---
--------------2-2-3------2-2-3---2-2-3---3---------


comment jouer :
-
-
2
0
-
2

Sans jour la corde de la ? Merci d'avance !

Pour Highway to hell :

Déjà t'es pas obliger, moi au début je jouais la corde de LA, ça changeait pas grand chose wink .

Après, pour bien le faire, j'étouffe la corde de LA, avec le pouce ou avec l'index.

Amuse toi bien et bon grattage smiley-guitar

PS : Quand tu as 2 notes à jouer espacées (comme dans le morceau de Mettalica), tu bloques le médiator entre ton pouce et ton index et tu joues l'autre note en même temps avec le majeur wink .






>> Plan du Forum Débutants | suivi de la discussion | Tags : les, -----, deux, ----------, jouer, morceau, nothing, actuellement, else

+