tablature slipknot (left-behind)


Discussion Verrouillée
Recherche

#
voici la tablature de slipknot left-behind laisser vos avis s.v.p :
Guitar 1
----------


Eb|------------------------------------------------------------------|
Bb|-------0----------------0-----------------------------------------|
Gb|---0------0---0-----0------0---0----------------------------------|
Db|-----0----------------0-------------5-5---4-4--/2-2--/0-0---2/4---|
Ab|------------------------------------------------------------------|
Eb|-3----------3-----5----------5----0-----0-----0-----0-----0-------|


|------------------------------------------------------------------|
|-------0----------------0-----------------------------------------|
|---0------0---0-----0------0---0----------------------------------|
|-----0----------------0-------------5-5---4-4--/5-5--/7-7---/9-9--|
|------------------------------------------------------------------|
|-3----------3-----5----------5----0-----0-----0-----0-----0-------|



|------------------------------------------------------------------|
|-------0----------------0-----------------------------------------|
|---0------0---0-----0------0---0----------------------------------|
|-----0----------------0-------------5-5---4-4--/2-2--/0-0---2/4---|
|------------------------------------------------------------------|
|-3----------3-----5----------5----0-----0-----0-----0-----0-------|


|------------------------------------------------------------------|
|-------0----------------0-----------------------------------------|
|---0------0---0-----0------0---0----------------------------------|
|-----0----------------0-------------5-5---4-4--/5-5--/7-7---/9-9--|
|------------------------------------------------------------------|
|-3----------3-----5----------5----0-----0-----0-----0-----0-------|


|------------------------------------------------------------------|
|-------0----------------0-----------------------------------------|
|---0------0---0-----0------0---0----------------------------------|
|-----0----------------0-------------5-5---4-4--/2-2--/0-0---2/4---|
|------------------------------------------------------------------|
|-3----------3-----5----------5----0-----0-----0-----0-----0-------|


|---10-----12p10---10---10-----12p10---10----8--8-7---8---8-7-5--7-|
|-8----8-8-------8----8----8-8-------8-----5---5----5---5----------|
|------------------------------------------------------------------|
|------------------------------------------------------------------|
|------------------------------------------------------------------|
|------------------------------------------------------------------|


|---10-----12p10---10---10-----12p10---10----8--8-7---8---8-7-5--7-|
|-8----8-8-------8----8----8-8-------8-----5---5----5---5----------|
|------------------------------------------------------------------|
|------------------------------------------------------------------|
|------------------------------------------------------------------|
|------------------------------------------------------------------|


|---10-----12p10---10---10-----12p10---10----8--8-7---8---8-7-5--7-|
|-8----8-8-------8----8----8-8-------8-----5---5----5---5----------|
|------------------------------------------------------------------|
|------------------------------------------------------------------|
|------------------------------------------------------------------|
|------------------------------------------------------------------|


|--------10---12p10----10----12p10----10----8---8-7----------------|
|-8--8-8----8--------8----8---------8-----5---5--------------------|
|------------------------------------------------------------------|
|------------------------------------------------------------------|
|------------------------------------------------------------------|
|------------------------------------------------------------------|


|------------------------------------------------------------------|
|------------------------------------------------------------------|
|-5--5----7--7----------------------------------5--5----7--7-------|
|-5--5----7--7---5-5---4-4---2-2---0-0---2-4----5--5----7--7-------|
|-3--3----5--5----------------------------------3--3----5--5-------|
|------------------------------------------------------------------|


|----------------------------------------------|
|----------------------------------------------|
|-------------------------------5--5----7--7---|
|-5-5---4-4---5-5---7-7---9-9---5--5----7--7---|
|-------------------------------3--3----5--5---|
|----------------------------------------------|


|---------------------------------------------|
|---------------------------------------------|
|--------------------------------5--5----7--7-|
|-5-5---4-4---2-2---0-0---2-4----5--5----7--7-|
|--------------------------------3--3----5--5-|
|---------------------------------------------|



|-------------------------------------------------------------------|
|-------------------------------------------------------------------|
|-------------------------------------------------------------8~~~8-|
|-2-2--222--222--2-2--222--222--2-2--222--222--2-2--222--222--x~~~x-|
|-2-2--222--222--2-2--222--222--2-2--222--222--2-2--222--222--6~~~6-|
|-0-0--000--000--0-0--000--000--0-0--000--000--0-0--000--000--------|
Pm * * *** *** * * *** *** * * *** *** * * *** ***

(Bass line here) | Fast Strumming |
|-------------------------------------------------------------------|
|-------------------------------------------------------------------|
|-8888------8888------8888------8888----88-8-888-8-88888-88-8-888-8-|
|-xxxx------xxxx------xxxx------xxxx----xx-x-xxx-x-xxxxx-xx-x-xxx-x-|
|-6666------6666------6666------6666----66-6-666-6-66666-66-6-666-6-|
|-------------------------------------------------------------------|


|-------------------------------------------|
|-------------------------------------------|
|-88888-88-8-888-8-88888-88-8-888-8-88888-8-|
|-xxxxx-xx-x-xxx-x-xxxxx-xx-x-xxx-x-xxxxx-x-|
|-66666-66-6-666-6-66666-66-6-666-6-66666-6-|
|-------------------------------------------|


|----------------------------------------------------|
|----------------------------------------------------|
|-9999999999999999-1212121212121212-1111111111111111-|
|-xxxxxxxxxxxxxxxx-xxxxxxxxxxxxxxxx-xxxxxxxxxxxxxxxx-|
|-7777777777777777-1010101010101010--9-9-9-9-9-9-9-9-|
|----------------------------------------------------|



|----------------------------------------------------|
|----------------------------------------------------|
|-9999999999999999-1212121212121212-1111111111111111-|
|-xxxxxxxxxxxxxxxx-xxxxxxxxxxxxxxxx-xxxxxxxxxxxxxxxx-|
|-7777777777777777-1010101010101010--9-9-9-9-9-9-9-9-|
|----------------------------------------------------|



|-----------------------------------------------------|
|-----------------------------------------------------|
|-99-9-99-9-99-9-99-9-1212-12-1212-12-1111-11-1111-11-|
|-xx-x-xx-x-xx-x-xx-x-xxxx-xx-xxxx-xx--x-x--x--x-x--x-|
|-77 7-77-7-77-7-77-7-1010-10-1010-10--9-9--9--9-9--9-|
|-----------------------------------------------------|
PM ** ** ** ** **** **** * * * *


|--------------------------------------------------------|
|--------------------------------------------------------|
|-99-9-99-9-99-9-99-9-1212-12-1212-12-1111-11-1111-------|
|-xx-x-xx-x-xx-x-xx-x-xxxx-xx-xxxx-xx--x-x--x--x-x--2222-|
|-77 7-77-7-77-7-77-7-1010-10-1010-10--9-9--9--9-9--2222-|
|---------------------------------------------------0000-|
PM ** ** ** ** **** **** * * * *


|-----------------------------------------------------------------|
|-----------------------------------------------------------------|
|-----------------55-55-44-44-444-----------------55-55-44-44-444-|
|-22-22-22-22-222-55-55-44-44-444-22-22-22-22-222-55-55-44-44-444-|
|-22-22-22-22-222-33-33-22-22-222-22-22-22-22-222-33-33-22-22-222-|
|-00-00-00-00-000-----------------00-00-00-00-000-----------------|
PM * * * * ** * * * * ** * * * * ** * * * * **


|-----------------------------------------------------------------|
|-----------------------------------------------------------------|
|-----------------55-55-44-44-444-----------------55-55-44-44-444-|
|-22-22-22-22-222-55-55-44-44-444-22-22-22-22-222-55-55-44-44-444-|
|-22-22-22-22-222-33-33-22-22-222-22-22-22-22-222-33-33-22-22-222-|
|-00-00-00-00-000-----------------00-00-00-00-000-----------------|
PM * * * * ** * * * * ** * * * * ** * * * * **


|-----------------------------------------------------------------|
|-----------------------------------------------------------------|
|-----------------55-55-44-44-444-----------------55-55-44-44-444-|
|-22-22-22-22-222-55-55-44-44-444-22-22-22-22-222-55-55-44-44-444-|
|-22-22-22-22-222-33-33-22-22-222-22-22-22-22-222-33-33-22-22-222-|
|-00-00-00-00-000-----------------00-00-00-00-000-----------------|
PM * * * * ** * * * * ** * * * * ** * * * * **


|-----------------------------------------------------------------|
|-----------------------------------------------------------------|
|-----------------55-55-44-44-444-----------------55-55-44-44-444-|
|-22-22-22-22-222-55-55-44-44-444-22-22-22-22-222-55-55-44-44-444-|
|-22-22-22-22-222-33-33-22-22-222-22-22-22-22-222-33-33-22-22-222-|
|-00-00-00-00-000-----------------00-00-00-00-000-----------------|
PM * * * * ** * * * * ** * * * * ** * * * * **


|-----------------------------------------------------------------|
|-----------------------------------------------------------------|
|-----------------55-55-44-44-444-----------------55-55-44-44-444-|
|-22-22-22-22-222-55-55-44-44-444-22-22-22-22-222-55-55-44-44-444-|
|-22-22-22-22-222-33-33-22-22-222-22-22-22-22-222-33-33-22-22-222-|
|-00-00-00-00-000-----------------00-00-00-00-000-----------------|
PM * * * * ** * * * * ** * * * * ** * * * * **


|-----------------------------------------------------------------|
|-----------------------------------------------------------------|
|-----------------55-55-44-44-444-----------------55-55-44-44-444-|
|-22-22-22-22-222-55-55-44-44-444-22-22-22-22-222-55-55-44-44-444-|
|-22-22-22-22-222-33-33-22-22-222-22-22-22-22-222-33-33-22-22-222-|
|-00-00-00-00-000-----------------00-00-00-00-000-----------------|
PM * * * * ** * * * * ** * * * * ** * * * * **

| Fast Strumming |
|-----------------------------------------------------|
|-----------------------------------------------------|
|------------------55555555-44444444------------------|
|-2222222222222222-55555555-44444444-2222222222222222-|
|-2222222222222222-33333333-22222222-2222222222222222-|
|-0000000000000000-------------------0000000000000000-|


|------------------------------------------------------|
|------------------------------------------------------|
|-55555555-44444444------------------55555555-44444444-|
|-55555555-44444444-2222222222222222-55555555-44444444-|
|-33333333-22222222-2222222222222222-33333333-22222222-|
|-------------------0000000000000000-------------------|


|--------------------------------------|
|--------------------------------------|
|------------------55555555-44444444---| END
|-2222222222222222-55555555-44444444-2-|
|-2222222222222222-33333333-22222222-2-|
|-0000000000000000-------------------0-|


------------------------------------------------------------------------

Guitar 2
------------
| Let Ring |
|--3~~~~~5~~~~~~0~~~~~~~~~3~~~~~~5~~~~~~0~~~~~~~|
|--0~~~~~0~~~~~~0~~~~~~~~~0~~~~~~0~~~~~~0~~~~~~~|
|--0~~~~~0~~~~~~0~~~~~~~~~0~~~~~~0~~~~~~0~~~~~~~|
|--5~~~~~7~~~~~~2~~~~~~~~~5~~~~~~7~~~~~~2~~~~~~~|
|--3~~~~~5~~~~~~2~~~~~~~~~3~~~~~~5~~~~~~2~~~~~~~|
|-----------------------------------------------|


|-3-----5-----0---------|
|-0~~~~~0~~~~~0~~~~~~~~~| ( doesn't play til
|-0~~~~~0~~~~~0~~~~~~~~~| right before chorus)
|-5~~~~~7~~~~~2~~~~~~~~~|
|-3~~~~~5~~~~~2~~~~~~~~~|
|-----------------------|


|------------------------------------------------------------|
|------------------------------------------------------------|
|-----------------5--5---7--7------------12/11---------12/11-|
|-2222222222222---5--5---7--7----2-2-222--x/x--2-2-222- x/x--|
|-2222222222222---3--3---5--5----2-2-222-10/9--2-2-222-10/9--|
|-0000000000000------------------0-0-000-------0-0-000-------|
PM ************ * * *** * * ***


|-----------------------------------------------------------|
|-----------------------------------------------------------|
|--5--5---7--7-----------12/11---------12/11---5--5---7--7--|
|--5--5---7--7---2-2-222--x/x--2-2-222- x/x----5--5---7--7--|
|--3--3---5--5---2-2-222-10/9--2-2-222-10/9----3--3---5--5--|
|----------------0-0-000-------0-0-000----------------------|
PM* * * *** * * ***


|---------------------------------------------|
|---------------------------------------------|
|----------12/11---------12/11---5--5---7--7--|
|--2-2-222--x/x--2-2-222- x/x----5--5---7--7--|
|--2-2-222-10/9--2-2-222-10/9----3--3---5--5--|
|--0-0-000-------0-0-000----------------------|
PM* * * *** * * ***


|----------------------------------------------------------------|
|----------------------------------------------------------------|
|----------12/11-----------12/11-----------12/11-----------12/11-|
|-2-2--222--x/x---2-2--222--x/x---2-2--222--x/x---2-2--222--x/x--|
|-2-2--222-10/9---2-2--222-10/9---2-2--222-10/9---2-2--222-10/9--|
|-0-0--000--------0-0--000--------0-0--000--------0-0--000-------|
Pm * * *** * * *** * * *** * * ***


|--------|
|--------| bass part played with open Eb, if you wanna play it.
|-8~~~~8-|
|-x----x-|
|-6~~~~6-|
|--------|

reversed from other guitar, listen to the song |fast strumming|
|-------------------------------------------------------------------|
|-------------------------------------------------------------------|
|-8888------8888------8888------8888----88-8-888-8-88888-88-8-888-8-|
|-xxxx------xxxx------xxxx------xxxx----xx-x-xxx-x-xxxxx-xx-x-xxx-x-|
|-6666------6666------6666------6666----66-6-666-6-66666-66-6-666-6-|
|-------------------------------------------------------------------|


|-------------------------------------------|
|-------------------------------------------|
|-88888-88-8-888-8-88888-88-8-888-8-88888-8-|
|-xxxxx-xx-x-xxx-x-xxxxx-xx-x-xxx-x-xxxxx-x-|
|-66666-66-6-666-6-66666-66-6-666-6-66666-6-|
|-------------------------------------------|



|----------------------------------------------------|
|----------------------------------------------------|
|-9999999999999999-1212121212121212-1111111111111111-|
|-xxxxxxxxxxxxxxxx-xxxxxxxxxxxxxxxx-xxxxxxxxxxxxxxxx-|
|-7777777777777777-1010101010101010--9-9-9-9-9-9-9-9-|
|----------------------------------------------------|



|----------------------------------------------------|
|----------------------------------------------------|
|-9999999999999999-1212121212121212-1111111111111111-|
|-xxxxxxxxxxxxxxxx-xxxxxxxxxxxxxxxx-xxxxxxxxxxxxxxxx-|
|-7777777777777777-1010101010101010--9-9-9-9-9-9-9-9-|
|----------------------------------------------------|



|-----------------------------------------------------|
|-----------------------------------------------------|
|-99-9-99-9-99-9-99-9-1212-12-1212-12-1111-11-1111-11-|
|-xx-x-xx-x-xx-x-xx-x-xxxx-xx-xxxx-xx--x-x--x--x-x--x-|
|-77 7-77-7-77-7-77-7-1010-10-1010-10--9-9--9--9-9--9-|
|-----------------------------------------------------|
PM ** ** ** ** **** **** * * * *


|-----------------------------------------------------------|
|-----------------------------------------------------------|
|-99-9-99-9-99-9-99-9-1212-12-1212-12-1111-11-1111-11111111-|
|-xx-x-xx-x-xx-x-xx-x-xxxx-xx-xxxx-xx--x-x--x--x-x--x-x-x-x-|
|-77 7-77-7-77-7-77-7-1010-10-1010-10--9-9--9--9-9--9-9-9-9-|
|-----------------------------------------------------------|
PM ** ** ** ** **** **** * * * *

-------------------------------------------------------
SOLO
|---------------------------------------------------------|
|---------------------------------------------888-777-555-|
|-----------------44-55-777-555-444-555-7p5-4-------------|
|-222-444-555/777-----------------------------------------|
|---------------------------------------------------------|
|---------------------------------------------------------|


|-----------5555555/7~~~~~|
|-777-8-7h8---------------|
|-------------------------|
|-------------------------|
|-------------------------|
|-------------------------|
-------------------------------------------------------
last stretch of the song.
|---------------------------------------------|
|---------------------------------------------|
|---------------------------------------------|
|-7p9-5p7-4p5-2-2222-2--7p9-5p7-4p5-2-2222-2--|
|---------------------------------------------|
|---------------------------------------------|
PM* **** ****


|----------------------------------------------------|
|----------------------------------------------------|
|----------------7p9-9p11-11p12----------------------|
|-7p9-9p10-10p12----------------7p9-5p7-4p5-2-2222-2-|
|----------------------------------------------------|
|----------------------------------------------------|
PM* ****

|---------------------------------------------|
|---------------------------------------------|
|---------------------------------------------|
|-7p9-5p7-4p5-2-2222-2--7p9-5p7-4p5-2-2222-2--|
|---------------------------------------------|
|---------------------------------------------|
PM* **** ****


|----------------------------------------------------|
|----------------------------------------------------|
|----------------7p9-9p11-11p12----------------------|
|-7p9-9p10-10p12----------------7p9-5p7-4p5-2-2222-2-|
|----------------------------------------------------|
|----------------------------------------------------|
PM* ****


|---------------------------------------------|
|---------------------------------------------|
|---------------------------------------------|
|-7p9-5p7-4p5-2-2222-2--7p9-5p7-4p5-2-2222-2--|
|---------------------------------------------|
|---------------------------------------------|
PM* **** ****


|----------------------------------------------------|
|----------------------------------------------------|
|----------------7p9-9p11-11p12----------------------|
|-7p9-9p10-10p12----------------7p9-5p7-4p5-2-2222-2-|
|----------------------------------------------------|
|----------------------------------------------------|
PM* ****


|---------------------------------------------|
|---------------------------------------------|
|---------------------------------------------|
|-7p9-5p7-4p5-2-2222-2--7p9-5p7-4p5-2-2222-2--|
|---------------------------------------------|
|---------------------------------------------|
PM* **** ****


|----------------------------------------------------|
|----------------------------------------------------|
|----------------7p9-9p11-11p12----------------------|
|-7p9-9p10-10p12----------------7p9-5p7-4p5-2-2222-2-| END
|----------------------------------------------------|
|----------------------------------------------------|
PM*



#
*** edité par modo, pas de grossiertés ni langage sms ici ****

pascal17

Petit causeur
Jeune tabber
Petit Downloader
11 photos
Membre VIP
71 messages
Modérateur
#
bon alors,
d'une part,
on depose les tablatures dans la section adequate,
par sur le forum,

pour: mega metalleux,
pas de grossiertés, et pas de langage sms,
vous etes sur partoch ici,
il ya des regles.

j'edite, je verrouille.


Discussion Verrouillée Recherche


Discussion Verrouillée


Autre liens sur le site pour Slipknot : Discographie Slipknot - Tee Shirt Slipknot - Poster Slipknot
plan Plan du Forum Tablatures||Tags : ---, ----, -----, ------, --x, x--, ----------------, -----------------, ----------