lecture de tablature


Discussion Verrouillée
Recherche

#
bonjour,
je suis vraiment débutante à la guitare et je n'arrive pas à lire les tablatures ex :
--0---0---1---2---------------------------------------------------------------------------------
--1---1---0---3---------------------------------------------------------------------------------
--2---0---0---2---------------------------------------------------------------------------------
--2---2---0---0---------------------------------------------------------------------------------
--0---3---2---x---------------------------------------------------------------------------------
--x---x---3---x---------------------------------------------------------------------------------

ou encore



e|---------------------------------|
b|---------------------------------|
g|---------------------------------|
d|-7-------9-------4-------4-------| (x 2)
a|-----7-------7-------4-------4---|
e|---------------------------------|



A quoi correspondent les chiffres et les lettres ? hum

juju8585

1 photo
#
Fait des recherche avant de crée de nouveau post.
Il y a déja plein desujet la deçue.

Cherche un peu. icon_redface


#
Hey !


Les lettres sont les notes américaine de l'accordage utilisée pour chaque corde.

Les chiffres sur chaque lignes sont les frettes sur lesquelles tu dois poser tes doigts. (exemple "4" tu poses ton doigt sur la 4eme frette icon_cheesygrin )

Attention : la corde la plus grosse sera la ligne du bas et la corde la plus fine sera la ligne du haut. endesaccord1

juju8585

1 photo
#
misterpq a écrit :
Hey !


Les lettres sont les notes américaine de l'accordage utilisée pour chaque corde.

Les chiffres sur chaque lignes sont les frettes sur lesquelles tu dois poser tes doigts. (exemple "4" tu poses ton doigt sur la 4eme frette icon_cheesygrin )

Attention : la corde la plus grosse sera la ligne du bas et la corde la plus fine sera la ligne du haut. endesaccord1



Les lettres sont les notes du monde entier. C'est çà l'universalité de la musique.


denis-px

Petit causeur
Jeune tabber
1 photo
Membre VIP
66 messages
Modérateur
#
pas tout à fait du monde entier ...
c'est la notation anglo saxone de la gamme tempérée ...
n'oublions pas que dans le monde pas mal de gens (pays arabes, inde ....) utilisent des gammes qui peuvent comprendre des quarts de ton .

la musique c'est comme l'amour seul c'est bien à plusieurs c'est mieux !
juju8585

1 photo
#
Exuser moi. icon_redface icon_redface
icon_cheesygrin icon_cheesygrin wink


chipie.foxtrot

Membre VIP
7 messages
Modérateur
#
 Citation :
Les chiffres sur chaque lignes sont les frettes sur lesquelles tu dois poser tes doigts. (exemple "4" tu poses ton doigt sur la 4eme frette )


ben non,le doigt est à poser en 4ème case,le plus près possible de la frette ,
mais pas sur la frette...

je joue de la guitare à six schtroumphs !
#
bonsoir. je v essayer de t exppliquer. alors : les 6 lignes correspondent a tes cordes de guitare. et les chiffres correspondent au nombres de tes cases (frèt). sur le manche

#
chipie.foxtrot
chipie.foxtrot a écrit :

 Citation :
Les chiffres sur chaque lignes sont les frettes sur lesquelles tu dois poser tes doigts. (exemple "4" tu poses ton doigt sur la 4eme frette )


ben non,le doigt est à poser en 4ème case,le plus près possible de la frette ,
mais pas sur la frette...



C'est façon de parler hammer mais ça peut prêter a confusion en effet icon_cheesygrin

jeguil

Artiste participatif
9 photos
113 messages
#
d-jessie a écrit :
bonjour,
je suis vraiment débutante à la guitare et je n'arrive pas à lire les tablatures ex :
--0---0---1---2---------------------------------------------------------------------------------
--1---1---0---3---------------------------------------------------------------------------------
--2---0---0---2---------------------------------------------------------------------------------
--2---2---0---0---------------------------------------------------------------------------------
--0---3---2---x---------------------------------------------------------------------------------
--x---x---3---x---------------------------------------------------------------------------------

ou encore



e|---------------------------------|
b|---------------------------------|
g|---------------------------------|
d|-7-------9-------4-------4-------| (x 2)
a|-----7-------7-------4-------4---|
e|---------------------------------|



A quoi correspondent les chiffres et les lettres ? hum


La meilleure réponse qu'on peut faire c'est celle-là :
http://www.partoch.com/cours/cours_guitare,133,Les+tablatures+++les+lire+et+les+...

A+

Ce n'est pas en sciant que Léonard devint scie...
chipie.foxtrot

Membre VIP
7 messages
Modérateur
#
+1

wink ben oui jeguil t'as raison chanteur

je joue de la guitare à six schtroumphs !
jeguil

Artiste participatif
9 photos
113 messages
#
Et oui et c'était pas la peine de refaire un topic, il y en a déjà un gros paquet sur le sujet !!! icon_cheesygrin

Ce n'est pas en sciant que Léonard devint scie...
chipie.foxtrot

Membre VIP
7 messages
Modérateur
#
il suffit de regarder en bas de cette même page ,
toutes les discussions en relation.... endesaccord3 icon_cheesygrin

je joue de la guitare à six schtroumphs !
denis-px

Petit causeur
Jeune tabber
1 photo
Membre VIP
66 messages
Modérateur
#
merci misteur ride
heu non docteur jeguill
puisque t'as tout résumé je ferme le post

la musique c'est comme l'amour seul c'est bien à plusieurs c'est mieux !

Discussion Verrouillée Recherche


Discussion Verrouillée

plan Plan du Forum Tablatures||Tags : ---, -------, les, arrive, lettres, lire, guitare, debutante, tablature