probleme avec la tablature de californication ( Red Hot Chili Pepper)

close
FILTRES DE LA RECHERCHE

Voila je suis ce que l'on peut appeler un gros débutant (pour pas dire autre chose icon_cheesygrin ) et j'ai du mal à faire cette partie de californication :
VERSE

C5 G5 F Dm
e|--------------------------------------------------------1----|
B|---------5----------------------------------------------3----|
G|---------------------------4-------------------------2-------|
D|-----5-----5----------------------------------3----0---------|
A|--3---------------------5-----5-------------3----------------|
E|---------------------3-------------------1-------------------|
If you want.... ...it's Californication


Je sais pas quels doigts placer (je trouve que c'est super loin pour mes doigts ! sad ) ni le rythme =S

Merci d'avance ^^

(pour info j'ai une guitare classique)


Sous Dieu du Forum
4336 messages
Je fait cette partie comme ça :
|------0-----------------------------------------------------|
|---------------------0------------------------------------3-|
|---0-----0--------------------------2-----------------0-----|
|-----------------0------0--------------------------2--------|
|3--------------------------------3-----3------3-------------|
|--------------3--------------1------------------------------|



Sous Dieu du Forum
4336 messages
désolé fait un copié collé dans le bloc note j'ai pas réussi a bien le mettre


Artiste en devenir
Tabber motivé
686 messages
En gros, ce passage c'est juste des arpèges sur des accords, donc tu place tes doigts comme pour l'accord et sa sera (à peu prêt) bon.


God of Partoch
Petit tabber
1 photo
15200 messages
Modérateur
dedyi il suffit de deplacer la main pour la dernière partie
des arpèges c'est des accords egrenés tu change d'accord et ça passe tout seul.

image du forum
la musique c'est comme l'amour seul c'est bien à plusieurs c'est mieux !
image du forum
Merci beaucoups des reponses je vais faire la tablature de hupo15 en attendant d'arriver à faire celle là ...Merci des conseils ^^


1 message
Le truc c'est le prenier accord c'est un Lam mais tu joue
sa : (normalement sa le fait)
--------
-----0-1
--------
---2----
-0------
--------
Ensuite tu jou un truc un peu plus complexe:
-----------------------------
-----------------------------
----------------------0-2----
-0h2p(pul off)0-----------3-2
----------------3---3--------
------------------1----------

ET tu rajoute sa a la tab de Hugo15 t'a tout le riff!!






>> Plan du Forum Débutants | suivi de la discussion | Tags : californication, doigts, -----, info, verse, partie, hot, ----, probleme

+