Salut

close
FILTRES DE LA RECHERCHE


Membre Banni
Petit causeur
51 messages
Je me suis mit a la gratte et j'aimerais ecouté ce qui ce fait en folk enfin accord et tout histoire de me faire une idée ed ce qui ya a joué ..
Vous me conseillez quoi comme cd ?


God of Partoch
Tabber motivé
5478 messages
Bonjour !

Je ne connais pas grand chose,mais je te conseille "Harvest" de Neil Young,"Déjà Vu" ou "So Far" de Crosby,Stills,Nash& Young,"Greatest Hits" de Bob Dylan (celui ou figurent "Blowin' in the wind" et "Just a woman") et "Pink Moon" de Nick Drake (pas simple par contre)...

Pour les morceaux,je te conseille les tabs en Guitar Pro de http://www.mysongbook.com,pour apprendre ou simplement pour avoir un semblant du rythme du morceau (mais là,je t'ai mis des tabs en txt,principalement celles de Partoch,juste pour te permettre de "voir")...

=> Neil Young :


-Heart of Gold (je la joue d'une autre façon,que je peux te détailler,si celle ci ne te convient pas) : http://www.partoch.com/tablature/?numero=2790960

-The Needle And The Damage Done : http://www.partoch.com/tablature/?numero=2802582

-Alabama : http://www.partoch.com/tablature/?numero=2790893

-A Man Needs A Maid : http://www.partoch.com/tablature/?numero=2791043

=> CSN&Y :


-4+20 : http://www.partoch.com/tablature/?numero=2780111

-The Lee Shore : http://www.partoch.com/tablature/?numero=2780119

-Suite Judy Blue Eyes : http://www.partoch.com/tablature/?numero=2780116

-Wooden Ships : http://www.partoch.com/tablature/?numero=2780129

-Ohio : http://www.partoch.com/tablature/?numero=2780156

-Déjà vu : http://www.partoch.com/tablature/?numero=2780104


=> Bob Dylan :


-Blowin' in The Wind : http://www.partoch.com/tablature/?numero=2780456

-All Along The Watchtower : http://www.partoch.com/tablature/?numero=2780462

-Mr Tambourine Man : http://www.partoch.com/tablature/?numero=561 ou http://www.mysongbook.com/tab-tab_download-id_tablature=41528.htm

-Like A Rolling Stone : http://www.partoch.com/tablature/?numero=560

-Subterranean Homesick Blues : http://www.partoch.com/tablature/?numero=2780513 ou http://www.mysongbook.com/tab-tab_download-id_tablature=42091.htm

-The Times They Are A Changin' : http://www.ultimate-guitar.com/tabs/d/dylan_bob/the_times_they_are_a-changing_ve...


=> Nick Drake :

-Things Behind The Sun : http://www.ultimate-guitar.com/tabs/d/drake_nick/things_behind_the_sun_tab.htm ou http://www.mysongbook.com/tab-tab_download-id_tablature=19144.htm

-Day is Done : http://www.ultimate-guitar.com/tabs/d/drake_nick/day_is_done_tab.htm ou http://www.mysongbook.com/tab-tab_download-id_tablature=26752.htm

-Parasite : http://www.ultimate-guitar.com/tabs/d/drake_nick/parasite_tab.htm

-Road : http://www.ultimate-guitar.com/tabs/d/drake_nick/road_tab.htm

-Strange Meeting 2 : http://www.algonet.se/~iguana/DRAKE/chrisstrange.html

-Been Smoking Too Long (assez "blues) : http://www.ultimate-guitar.com/tabs/d/drake_nick/been_smokin_too_long_tab.htm

-Clothes of Sand : http://www.algonet.se/~iguana/DRAKE/clothestab.htm


Membre Banni
Petit causeur
51 messages
Okéééé j'ai du boulot !!
J'ai pas de prof et j'en veut pas faut ke je bosse combien d'heure par semaine si jveut avoir du niveau dans un ans ?


God of Partoch
Tabber motivé
7 photos
8772 messages
Un niveau correct dans un an?
Ben sans prof je dirais 2 heures sérieuses par jour!
enfin je suis pas sure, mais je dirais au moins ça ! Avec ça tu devrai au moins pouvoir divertir tes potes en te faisan plaisir au coin du feu !


Membre Banni
Petit causeur
51 messages
Exact !!! smiley-guitar lol

Vive la gratte !!

J'ai appris un truk de counting crow " color blind " ça plait bien au filles .. icon_cheesygrin

Les prof ils apprennent quoi ?

Et merci le singe


God of Partoch
Tabber motivé
7 photos
8772 messages
pour les counting, moi j'en ai une que j'adore c'est "mr jones". Elle est pas super dures, y 4 accord qui tournent.
Ils en ont fait une version accoustique, my god, quand je l'entend je m'arret de faire autre chose direct !!!!

Pour les profs je peux pas te répondre j'en ai pas !!!!


Sous Dieu du Forum
2 photos
2845 messages
salut,

"les profs ils apprennent quoi ?", ba moi j'en ai un et ils t'aident à ne pas prendre de mauvaises habitudes pour le placement de tes doigts, comment tenir ta guitare, tous ses trucs un peu techniques,les accords, des démonstration en live icon_cheesygrin ....

et ce que je prefere c'est l'échange que tu peux avoir avec eux, ils te montrent ce qu'ils aiment faire et écouter et t'aide à faire ce que toi tu veux smiley-guitar , des fois je suis limite en admiration devant lui tellement il joue bien smyleybleu enfin mieux que moi wink )


God of Partoch
Tabber motivé
5478 messages
Mais de rien,c'est tout à fait normal ! icon_cheesygrin

Désolé,si j'en ai mis trop,mais c'était pour que tu ai le choix ! wink

Comme te l'a dit l'Elfe 1h30-2h par jour suffient,je pense pour certains morceaux...

Et pour "Heart of Gold",qui est superbe,en une heure,voir moins si tu maîtrise le passage d'accords,tu peux la jouer sans problème.

La version du site ne me convient pas j'en utilise une autre,plus simple,donc si tu veux...


Membre Banni
Petit causeur
51 messages
Euh oué je commence par elle alors .Je veut bien ta version aussi stp

J'ai telechargé une video d'un mec qui s'appelle Marc rové Il donne plein d'exercice c bien ça ? c trop un bon ce mec maitre


En gros quand je bosse j'apprend des partoche je fais des exercice et je tripe c ça ?

merki merki Tkt yen a pas trop si faut ke je bosse une heure par jour je vais mm en manké


God of Partoch
Tabber motivé
5478 messages
Ben,oui,tu peux travailler avec des morceaux qui te plaisent,ça passe même mieux.

En fait,je joue une version simplifiée à base de 4-5 accords et pour le rythme j'improvise légèrement (mais,je pense que c'est bon car je vient de réécouter le morceau) :

-Em : 022000
-D : xxx0232
-C : x32010
-G : 320003
-Em11 : 200000

Je te le met en tab,en espérant que ça soit lisible. wink

=>Intro

A jouer 2 fois avant d'attaquer le couplet.

* Le "h" signifie hammer-on.

-------------0--0--0--0-----2--2-----0--------------------------------------------------------------------------------------------------- 2x
-------------0--0--0--0-----3--3-----0---------------------------------------------------------------------------------------------------
-------------0--0--0--0-----2--2-----0---------------h----------------------------------------------------------------------------------
---2--2----2--2--2--2-----0--0-----2-------h----0---2--------------------------------------------------------------------------------
---2--2----2--2--2--2---------------2-----0---2----------2----------------------------------------------------------------------------
---0--0----0--0--0--0---------------0---------------------------------------------------------------------------------------------------


=>Couplet


Là,c'est d'abord les basses de l'accord (2 fois),puis l'accord suivi des "aigues" ou de l'accord entier en aller retour (pour les deux solutions)pour enchaîner sur les basses du suivant (sauf pour le G et le Em11 où seules les basses sont jouées à la suite) :


-----------0------------------------0---------------------2---2--2---------------------------------------------------------------------------------------------
-----------0----0--0--------------1---1--1-------------3---3--3---------------------------------------------------------------------------------------------
-----------0----0--0--------------0---0--0-----2--2---2---2--2--------------------------------------------------------------------------------------------
-----------2----2--2-----2--2---2---2--2-----0--0---0-----------------------------------------------------------------------------------------------------
---2--2---2---2--2-----3--3---3--------------------------------------2--2----0--0------------------------------------------------------------------------
---0--0---0-------------------------------------------------------------3---3---2--2-------------------------------------------------------------------------



Désolé pour l'espace entre les cordes,ça ne change en tout cas rien à la tab,en espérant que ça rste lisible...


Membre Banni
Petit causeur
51 messages
yeah merci je crois que je vais y arrivé
Hammer on qu'est ce que c'est ?


God of Partoch
Tabber motivé
5478 messages
De rien !


 Citation :
Hammer-on: La technique du hammer-on (du mot hammer, marteau en anglais) consister à marteler, ou plutot frapper la note à l'aide d'un doigt de la main gauche sur la corde, sans s'aider de la main droite pour faire vibrer cette corde.


(extrait de : http://paranine.webdynamit.net/lexique/index.php, )






Le hammer-on c'est une note "martelée",tu ne joues que le "0" en pinçant la corde,et alors qu'elle résonne tjrs tu appuies (sans laisser ton doigt longtemsp)en 2nde case avec ton index (par exemple),cela aura pour but de jouer cette note en 2nde case.

Bon,désolé si ça n'est pas clair,le didacticiel de la lecture de tab l'expliquera mieux :


 Citation :
2.2 Hammer ons et Pull offs

Avec les hammer ons et les pull offs, vous rencontrerez des tablatures comme suit:


E --------------------------------------------------
B --------------------------------------------------
G --------------------------------------------------
D --------------------------------------------------
A-------------5h7------------5h7--------------------
E ---0----0----------0----0-------------------------


Ce qui signifie jouez le Mi à vide deux fois, puis jouez le La à la 5è frette, et martelez la 7è frette.

Les Pull offs ressemble beaucoup:


E -------3p0----------------------------------------
B -------------3p0----------------------------------
G -----------------2p0------------------------------
D -----------------------2--------------------------
A --------------------------------------------------
E --------------------------------------------------


Ici, nous avons une gamme de blues qui utilise des pull offs. Pour chacun d' entre eux, vous pincez seulement la première note de la paire avec la main droite.
Dans cet exemple, vous pinceriez toutes les notes sur les 3è et 2nde frette, et les cordes à vide sonneraient en pull offs.
Parce que vous donnez un peu plus de puissance à la corde quand vous faites ces effets, vous avez seulement besoin de jouer la 1ère note avec la main qui fait le picking.
Vous pourriez même trouver des pull offs et des hammer ons sur la même corde, comme suit:


E -----------------------------------------------------------
B -----------------------------------------------------------
G ---2-h-4-p-2-h-4-p-2-h-4-p-2-h-4-p-2-h-4-p-2---------------
D -----------------------------------------------------------
A -----------------------------------------------------------
E -----------------------------------------------------------


Dans ce cas, vous pincez seulement la 1ère note.
Rq: Vous trouverez peut-être d' autres symboles pour représenter des hammer ons et des pull offs, par exemple ^ peut être utilisé pour ces effets.

Ex: Sol -----2^4^2----------------------

Ce qui voudrait dire "jouez la note sur la 2nde frette, martelez sur la 4è, puis tirez sur la 2nde; Ce serait plus simple si tout le monde utilisait les mêmes symboles.
Mais à moins que ces symboles vous posent un gros problèmes, utilisez les.
Dans tous les cas, quand vous écrirez une tab, mettez une légende, comme ça, si vos symboles ne sont pas conventionnels, on comprendra ce qu' ils veulent dire.



Membre Banni
Petit causeur
51 messages
C'esr recent tout ça ?






>> Plan du Forum Débutants | suivi de la discussion | Tags : mit, folk, fait, ecout, gratte, aimerais, enfin, accord, conseillez

+