tablature bb brune


nouveau message Répondre
Recherche

#
Salut alor vous allez surement me trouver bete mais sur cette tablature :
-9--9----9--9----10-0---9--9--9--
-10-10---9--9----10-0---9--9--9--
-11-11---10-10---11-11--10-10-10-
-11-11---11-11---12-12--11-11-11- ==> X4
-9--9----11-11---12-12--11-11-11-
-9--9----9--9----10-0---9--9--9--


Comment peut on placer ses 6 doight en meme temps je n'y arrive pas svp aier moi !



guizicos

Jeune tabber
4 photos
#
shauna
shauna a écrit :

-9--9----9--9----10-0---9--9--9--
-10-10---9--9----10-0---9--9--9--
-11-11---10-10---11-11--10-10-10-
-11-11---11-11---12-12--11-11-11- ==> X4
-9--9----11-11---12-12--11-11-11-
-9--9----9--9----10-0---9--9--9--



Comment peut on placer ses 6 doight en meme temps je n'y arrive pas svp aier moi !


Pour le premier accord :
Un barré avec l'index case 9,
tu places ensuite ton annulaire sur la case 11 de la 3ème corde,
puis auriculaire case 11 de la 4eme corde,
puis majeur case 10 de la 5ème corde.

Ensuite même principe

wink


nouveau message Répondre Recherche


Répondre à cette discussion >>

plan Plan du Forum Tablatures||Tags : ---, ----, tablature, trouver, bete, surement, allez, brune, alor