qui pourait me donner la tablature de highway to hell


nouveau message Répondre
Recherche

#
salut j'aimerais bcp qu'on me donne la tablature d'highway to hell merci beaucoup d'avance! razz

bill thompson

1 message
#
Bonjour,
la voici:

D#|-----------------|-----------------------|-----------------------|---------------------------------|
A#|-----------------|-----------3---3---3---|-----------3---3---3---|-----3---3---3-------3-----------|
F#|-----2---2---2---|-----------2---2---0---|-----------2---2---0---|-----2---2---0-------2-------2---|
C#|-----2---2---2---|-----------0---0---0---|-----------0---0---0---|-----0---0---0-------0-------2---|
G#|-----0---0---0---|-----------0---0---0---|-----------0---0---0---|-----0---0---0-------0-------0---|
D#|-----------------|-----------2---2---3---|-----------2---2---3---|-----2---2---3-------2-----------|


D#|---------------------------|-----------------------|-----------------------|---------------------------------|
A#|---------------------------|-----------3---3---3---|-----------3---3---3---|-----3---3---3-------3-----------|
F#|-2-------------2---2---2---|-----------2---2---0---|-----------2---2---0---|-----2---2---0-------2-------2---|
C#|-2-------------2---2---2---|-----------0---0---0---|-----------0---0---0---|-----0---0---0-------0-------2---|
G#|-0-------------0---0---0---|-----------0---0---0---|-----------0---0---0---|-----0---0---0-------0-------0---|
D#|---------------------------|-----------2---2---3---|-----------2---2---3---|-----2---2---3-------2-----------|


D#|---------------------------|------------------------------|---------------------------------|
A#|---------------------------|------------------------------|---------------------------------|
F#|-2-------------2---2---2---|------------------------------|---------------------------------|
C#|-2-------------2---2---2---|-2----2---2---2---2---2---2---|-2---2---2---2---2---2---2---2---|
G#|-0-------------0---0---0---|-2----2---2---2---2---2---2---|-2---2---2---2---2---2---2---2---|
D#|---------------------------|-0----0---0---0---0---0---0---|-0---0---0---0---0---0---0---0---|


D#|-----------2---|-2---2---2-------3----2----|-----------2---|-2---2---2-------3----2----|
A#|-2---------3---|-3---3---3-------3----3----|-2---------3---|-3---3---3-------3----3----|
F#|-2-----0---2---|-2---2---2-------0----2----|-2-----0---2---|-2---2---2-------0----2----|
C#|-2-----0---0---|-0---0---0-------0----0----|-2-----0---0---|-0---0---0-------0----0----|
G#|-0-------------|-----------------0----0----|-0-------------|-----------------0----0----|
D#|---------------|-------------0---3----2----|---------------|-------------0---3----2----|


D#|-----------2---|-2---2---2-------3----2----|-----------2---|-2------|-2-----2---------------|
A#|-2---------3---|-3---3---3-------3----3----|-2---------3---|-3------|-3-----3---------------|
F#|-2-----0---2---|-2---2---2-------0----2----|-2-----0---2---|-2------|-2-----2---2---2---2---|
C#|-2-----0---0---|-0---0---0-------0----0----|-2-----0---0---|-0------|-0-----0---2---2---2---|
G#|-0-------------|-----------------0----0----|-0-------------|--------|-----------0---0---0---|
D#|---------------|-------------0---3----2----|---------------|--------|-----------------------|


D#|-----------------------|-----------------------|---------------------------------|
A#|-----------3---3---3---|-----------3---3---3---|-----3---3---3-------3-----------|
F#|-----------2---2---0---|-----------2---2---0---|-----2---2---0-------2-------2---|
C#|-----------0---0---0---|-----------0---0---0---|-----0---0---0-------0-------2---|
G#|-----------0---0---0---|-----------0---0---0---|-----0---0---0-------0-------0---|
D#|-----------2---2---3---|-----------2---2---3---|-----2---2---3-------2-----------|


D#|---------------------------|------------------------------|---------------------------------|
A#|---------------------------|------------------------------|---------------------------------|
F#|-2-------------2---2---2---|------------------------------|---------------------------------|
C#|-2-------------2---2---2---|-2----2---2---2---2---2---2---|-2---2---2---2---2---2---2---2---|
G#|-0-------------0---0---0---|-2----2---2---2---2---2---2---|-2---2---2---2---2---2---2---2---|
D#|---------------------------|-0----0---0---0---0---0---0---|-0---0---0---0---0---0---0---0---|


D#|-----------2---|-2---2---2-------3----2----|-----------2---|-2---2---2-------3----2----|
A#|-2---------3---|-3---3---3-------3----3----|-2---------3---|-3---3---3-------3----3----|
F#|-2-----0---2---|-2---2---2-------0----2----|-2-----0---2---|-2---2---2-------0----2----|
C#|-2-----0---0---|-0---0---0-------0----0----|-2-----0---0---|-0---0---0-------0----0----|
G#|-0-------------|-----------------0----0----|-0-------------|-----------------0----0----|
D#|---------------|-------------0---3----2----|---------------|-------------0---3----2----|


D#|-----------2---|-2---2---2-------3----2----|-----------2---|-2------|-2---2----------------2----|
A#|-2---------3---|-3---3---3-------3----3----|-2---------3---|-3------|-3---3---3---3---3----3----|
F#|-2-----0---2---|-2---2---2-------0----2----|-2-----0---2---|-2------|-2---2---2---0---0----2----|
C#|-2-----0---0---|-0---0---0-------0----0----|-2-----0---0---|-0------|-0-------0---0---0----0----|
G#|-0-------------|-----------------0----0----|-0-------------|--------|-------------0-------------|
D#|---------------|-------------0---3----2----|---------------|--------|-------------3---3---------|


D#|-2------|-2---2----------------2----|-2------------2----2----|--------------------2---|
A#|-3------|-3---3---3---3---3----3----|-3---3----3---3----3----|-2----2----2--------3---|
F#|-2------|-2---2---2---0---0----2----|-2---0----0---2----2----|-2----2----2----0---2---|
C#|-0------|-0---0---0---0---0----0----|-0---0----0---0----0----|-2----2----2----0---0---|
G#|--------|-------------0-------------|-----0----0-------------|-0----0----0------------|
D#|--------|-------------3---3---------|-----3----3-------------|------------------------|


D#|-2---2---2-------3----2----|--------------------2---|-2---2---2-------3----2----|
A#|-3---3---3-------3----3----|-2----2----2--------3---|-3---3---3-------3----3----|
F#|-2---2---2-------0----2----|-2----2----2----0---2---|-2---2---2-------0----2----|
C#|-0---0---0-------0----0----|-2----2----2----0---0---|-0---0---0-------0----0----|
G#|-----------------0----0----|-0----0----0------------|-----------------0----0----|
D#|-------------0---3----2----|------------------------|-------------0---3----2----|


D#|--------------------2---|-2---2---2-------3----2----|--------------------2---|-2---2---2-------3----2----|
A#|-2----2----2--------3---|-3---3---3-------3----3----|-2----2----2--------3---|-3---3---3-------3----3----|
F#|-2----2----2----0---2---|-2---2---2-------0----2----|-2----2----2----0---2---|-2---2---2-------0----2----|
C#|-2----2----2----0---0---|-0---0---0-------0----0----|-2----2----2----0---0---|-0---0---0-------0----0----|
G#|-0----0----0------------|-----------------0----0----|-0----0----0------------|-----------------0----0----|
D#|------------------------|-------------0---3----2----|------------------------|-------------0---3----2----|


D#|--------------------2---|-2---2---2-------3----2----|--------------------2---|-2---2---2-------3----2----|
A#|-2----2----2--------3---|-3---3---3-------3----3----|-2----2----2--------3---|-3---3---3-------3----3----|
F#|-2----2----2----0---2---|-2---2---2-------0----2----|-2----2----2----0---2---|-2---2---2-------0----2----|
C#|-2----2----2----0---0---|-0---0---0-------0----0----|-2----2----2----0---0---|-0---0---0-------0----0----|
G#|-0----0----0------------|-----------------0----0----|-0----0----0------------|-----------------0----0----|
D#|------------------------|-------------0---3----2----|------------------------|-------------0---3----2----|


D#|---------------|---------------|--------------------2---|-------3----2----|--------------------2---|
A#|---------------|---------------|-2----2----2--------3---|-------3----3----|-2----2----2--------3---|
F#|---------------|---------------|-2----2----2----0---2---|-------0----2----|-2----2----2----0---2---|
C#|---------------|---------------|-2----2----2----0---0---|-------0----0----|-2----2----2----0---0---|
G#|---------------|---------------|-0----0----0------------|-------0---------|-0----0----0------------|
D#|---------------|---------------|------------------------|-------3---------|------------------------|


D#|-2---2---2-------3----2----|--------------------2---|-2---2---2-------3----2----|
A#|-3---3---3-------3----3----|-2----2----2--------3---|-3---3---3-------3----3----|
F#|-2---2---2-------0----2----|-2----2----2----0---2---|-2---2---2-------0----2----|
C#|-0---0---0-------0----0----|-2----2----2----0---0---|-0---0---0-------0----0----|
G#|-----------------0----0----|-0----0----0------------|-----------------0----0----|
D#|-------------0---3----2----|------------------------|-------------0---3----2----|


D#|--------------------2---|-2---2---2-------3----2----|------------|-2------|------2-------2---2--------|
A#|-2----2----2--------3---|-3---3---3-------3----3----|------------|-3------|------3-------3---3---3----|
F#|-2----2----2----0---2---|-2---2---2-------0----2----|------------|-2------|------2-------2---2---0----|
C#|-2----2----2----0---0---|-0---0---0-------0----0----|------------|-0------|------0---0---0---0---0----|
G#|-0----0----0------------|-----------------0----0----|------------|--------|----------------------0----|
D#|------------------------|-------------0---3----2----|------------|--------|----------------------3----|


D#|-------------------------|--------|--------|--------|------2-----|------------|
A#|-3-------------3---3-----|-3------|--------|--------|------2-----|------------|
F#|-0-------2---------------|--------|-2------|-2------|-2----2-----|-2----------|
C#|-0----0-----0------------|--------|-2------|-2------|-2----2-----|-2----------|
G#|-------------------------|--------|-0------|-0------|-0----------|-0----------|
D#|-3-----------------------|--------|--------|--------|------------|------------|


voilà!
jéspère que ça te convient!
désolé si les différentes cordes ne sont pas en face, tu dois copier/coller dans un éditeur de texte.

#
merci !!! sa va smiley-guitar

link3r

Petit causeur
Jeune tabber
Petit Downloader
1 photo
73 messages
#
Si je puis me permettre une remarque désobligeante, il y a un moteur de recherche sur le site. et j'ajouterais que les tablatures de ce morceau ne manquent pas.

bite nique

Membre Banni
1 message
#
supprimé par modo


nouveau message Répondre Recherche


Répondre à cette discussion >>


Autre liens sur le site pour Acdc : Discographie Acdc - Tee Shirt Acdc - Poster Acdc
plan Plan du Forum Tablatures||Tags : highway, tablature, hell, merci, avance, donner, pourait, beaucoup, ACDC