recherche tablatures demago


nouveau message Répondre
Recherche

#
Salut les gratteux,voila je recherche activement des tablatures du groupe Demago;plus particulièrement"hey doc",respirez","le mégalo","joe".
Je poste ici car aucun moyen de trouver quoi que ce soit sur google...
Merci d' avance et bonne gratte.

#
HEY DOC (Demago)

Dm F Bb A

|--------------------------|--------------------------|
|--------------------------|--------------------------|
|--------0--------0--------|--------0--------0--------|
|-----7--------7-----------|-----3--------2-----------|
|--5--------8-----------0--|--1--------0-----------0--|
|--------------------------|--------------------------|


Dm F Bb A

|---------------------------|-------------------------|
|---------------------------|-------------------------|
|--------0---------0--------|--------0--------0-------|
|-----7--------10-----------|-----3--------2----------|
|--5-------/8------------0--|--1--------0-------------|
|---------------------------|-------------------------|

voila c'est tout ce que j'ai pour le moment c'est que le debut j'ai pas la suite
escuse moi du faite que c'est pas alignés j'espere que tu comprendera ^^


nouveau message Répondre Recherche


Répondre à cette discussion >>

plan Plan du Forum Tablatures||Tags : recherche, demago, tablatures, plus, hey, particulierement, doc, des, groupe