accord de reggea


nouveau message Répondre
Recherche

#
bonjour a tous je voudrait que quelqu'un ( si possible ) me donne des accord de reggae et au passage m'explique comment se lit une tablature s'ils vous plait .... merci d'avance .

#
Alors lire une tablature :

http://www.partoch.com/cours/cours_guitare,133,Les+tablatures+++les+lire+et+les+...

Et donc ben pour des accords de reggae il y en à beaucoup mais déjà tu peux faire du reggae avec des barrés !

#
il n'y a pas d'accord dit "reggae" ce sont des accords normaux!!!et regarde le site TOUT EST INDIQUER!!! il y a pas deja des topics existants!!!

Vous commencez avec 6 lignes (ou 4 pour la basse). Elles correspondent aux cordes de l' instrument.
La ligne du haut à la corde Mi aigue, et celle du bas, à la corde Mi grave.
Ci dessous, est une représentation d' une tab, avec le nom des cordes à gauche.


Mi (e) --------------------------------------------------------------------
Si (b) -------------------------------------------------------------------
Sol(g) --------------------------------------------------------------------
Ré (d) --------------------------------------------------------------------
La (a) --------------------------------------------------------------------
Mi (e) --------------------------------------------------------------------


Les nombres sont écris sur les lignes pour vous montrer sur quelle frette jouer la corde avec la main gauche. S' il y a un 0, vous devez jouer la corde à vide.
Comme dans une notation standard, vous devez lire de gauche à droite, pour suivre l' ordre des notes.
L' exemple suivant dirait: " jouez la suite de notes (Mi, Fa, Fa#, Sol, Sol#, La) sur la corde Mi grave, en déplaçant vos doigts frette par frette, et en commençant par jouer la corde à vide.


E ------------------------------------------------------------------------
B ------------------------------------------------------------------------
G -----------------------------------------------------------------------
D -----------------------------------------------------------------------
A -----------------------------------------------------------------------
E --0--1--2--3--4--5---------------------------------------------------


Jusqu' ici tout va bien?
Ici, nous avons des notes jouées en même temps.
Si deux notes ou plus sont à jouer en même temps, elles sont écrites les unes au dessus des autres, comme dans une notation standard, l' exemple suivant est un accord barré de sol:


E ---3 -----------------------------------------------------------------
B ---3------------------------------------------------------------------
G ---4------------------------------------------------------------------
D ---5------------------------------------------------------------------
A ---5------------------------------------------------------------------
E ---3-------------------------------------------------------------------


Ce qui veut dire que jouer toutes ces notes en même temps est un accord.
Vous rencontrerez peut-être la même chose écrit comme suit:


E ---------3------------------------------------------------------------
B --------3-------------------------------------------------------------
G ------4---------------------------------------------------------------
D -----5----------------------------------------------------------------
A ----5-----------------------------------------------------------------
E ---3------------------------------------------------------------------


Ce qui signifie que vous faite le même accord, en commençant par la corde Mi grave, ainsi, chaque corde est jouée sensiblement après la précédente,
mais toutes les notes vont sonner ensemble.

Ci dessous est un exemple du même accord, mais ici, les notes sont plus espacées, donc, vous allez probablement jouer les notes séparemment plutôt que jouer l' accord lentement.


E---------------------------------------3--------------------------------
B-------------------------------3---------------3------------------------
G----------------------4------------------------------4------------------
D----------------5------------------------------------------5------------
A ---------5-------------------------------------------------------5-----
E ----3------------------------------------------------------------------3


Vous vous demandez surement, comment je sais si je dois jouer les notes rapidement ou lentement? Est-ce que toutes les notes ont la même durée?
C' est là que la tablature diffère des notations standard. Le plus souvent, la tab ne vous donnera aucune indication sur la durée des notes. Généralement, c' est à vous d' écouter la chanson, pour avoir le rythme.

Quoi qu' il en soit, ne désespérez pas! La tab devrait vous donner quelques infos sur le timing. Dans l' exemple ci dessus, toutes les notes sont espacées régulièrement, donc, vous pouvez raisonnablement en déduire que ces notes ont la même durée (peut- être toutes des croches) mais ce raisonnement ne sera pas toujours efficace. Ca dépend de la personne qui a écrit la tablature.

En règle générale, l' espace des notes sur la tab vous dira quelles sont les notes longues, et quelles sont les notes courtes et rapides. Mais évidemment elle ne vous dira pas s' il y a des triplets, ou des trucs comme ça. Là encore ça dépend de l' auteur de la tablature.

Par exemple, voilà les premières notes de l' hymne national Américain, en tablature. Vous voyez clairement que les différents espaces correspondent à la longueur des notes.


E ----------------------------0---------4-2-0--------------------------
B ------0-----------------0-------------------------1-----3-----4-----
G----------1-------1---------------------------------------------------
D --------------2------------------------------------------------------
A --------------------------------------------------------------------
E ----------------------------------------------------------------------


Evidemment, ça sera plus facile de jouer la tab d' un morceau que vous connaissez bien plutôt que celle d' une chanson que vous n' avez jamais entendue, parce que vous serez déjà familiarisé avec le rythme d' un morceau qui vous est familier

2.1 Autres symboles utilisés dans la tablature

Jusqu' ici, on a vu quelles notes jouer: quelles cordes et quelles frettes. J' ai mentionné la manière de se faire une idée de la durée des notes, en regardant les espaces entre les chiffres. Mais ceci ne peut-être qu' un guide très général. Vous devrez toujours vérifiez les morceaux, pour étudier les détails du rythme.
Beaucoup d' autres infos peuvent être incluses dans une tablature. Par exemple, les 'hammer ons' (martelés), les 'pull offs' (tirés), les slides, les bends et autres effets.
Généralement, on écrira des lettres ou des symboles entre les notes, pour montrer comment les jouer. Ci dessous, vous trouverez les lettres et les symboles les plus utilisés.

h= hammer ons
p= pull offs
b= bends
r= reverse bends
/= slide vers la caisse
= slide vers le bout du manche
v= vibrato (quelques fois écrit ~)
t= un petit coup avec la main droite
x= jouer la note étouffée

Pour les slides, un 's' est quelques fois utilisé, quelqu' en soit le sens.
Le dernier symbole, le 'x' est utilisé pour les sons variables et percutants. Vous utilisez votre main gauche, pour légèrement étouffer la corde. Ainsi, quand vous la jouez, le son est comme 'mort'.
Rq: L' utilisation du 'x' est différente de son utilisation quand on représente un accord. Par exemple, l' accord Ré peut s' écrire:

E A D G B E
x x 0 2 3 2

Dans une tab, on voit implicitement qu' une corde n' est pas à jouer, quand il n' y a rien écrit dessus. Ainsi, le même accord en tablature serait:

E ---2------ ...sans 'x'. Dans la tablature, le 'x' est seulement
B ---3------ utilisé pour représenter un son étouffé.
G ---2------
D ---0------
A ----------
E ----------

good luck!!

#
merci c vraiment sympa en faite je suis 1 bouler je la lisez a l'envers ... icon_redface


nouveau message Répondre Recherche


Répondre à cette discussion >>

plan Plan du Forum Tablatures||Tags : accord, donne, des, possible, quelqu, reggea, bonjour, voudrait, reggae