besoin d'aide je suis une debutante


nouveau message Répondre
Recherche

memerelulu

Petit Downloader
#
hey , je voulais savoir ceux que signifiais les traits entre chaque numero sur les tablature smiley-guitar Merci beaucoup chanteur
Et bonne gratte



hodari

1 photo
#
Rien.

En fait chaque ligne représente une corde de la guitare, et les traits, c'est la ligne. L'espacemet des chiffres peut éventuellemnt donner une idée du rythme.

#
Et quand on a ça ??? c'est des accords??


e|---------------------------------------------------------------------|
B|---------------------------------------------------------------------|
G|---------------------------------------------------------------------|
D|-----------2----5----5-----------------------------------------------|
A|-------¡X---2----5----5----------------------------------------------|
E|-----------0----3----3-----------------------------------------------|

et le X coresspond a quoi???

#
les tablature sa saire a remplacé les notes ou les accords ou tous simplements a les formulés d'une façon plus facile icon_cheesygrin note-8 note-32

sakofani_

Mega Tabber
#
Les traits signifient la ligne et précisément la corde .
Bonne Gratte

#
jade96
jade96 a écrit :
Et quand on a ça ??? c'est des accords??


e|---------------------------------------------------------------------|
B|---------------------------------------------------------------------|
G|---------------------------------------------------------------------|
D|-----------2----5----5-----------------------------------------------|
A|-------¡X---2----5----5----------------------------------------------|
E|-----------0----3----3-----------------------------------------------|

et le X coresspond a quoi???


ici tu as deux accords effectivement.
Le premier
e|--------------
B|--------------
G|--------------
D|-----------2--
A|-----------2--
E|-----------0--
C'est un Mi mineur ou Em

le deuxième
e|---------------------------------------------------------------------|
B|---------------------------------------------------------------------|
G|---------------------------------------------------------------------|
D|--------------5----5-----------------------------------------------|
A|--------------5----5----------------------------------------------|
E|--------------3----3-----------------------------------------------|
Ici c'est un Sol ou G

Les lettre ne début de ligne corresponde au note des cordes à vide c'est à dire la note joué lorsqu'on appuye sur aucune des cases.

le "x" sur une tablature signifie un étouffement de corde c'est à dire que tu appuie sur la corde juste ce qu'il faut pour ne pas que la note sonne (pour donner un effet de percution).

E = Mi majeur
B = Si majeur
G = Sol majeur
D = Ré "
A = La "


nouveau message Répondre Recherche


Répondre à cette discussion >>

plan Plan du Forum Tablatures||Tags : les, gratte, ceux, signifiais, savoir, voulais, aide, debutante, hey