Paint it black des Rolling Stones


nouveau message Répondre
Recherche

#
Je veux apprendre Paint it black. J'ai trouvé une video sur Youtube pour travailler et je trouve qu'il joue pas mal. Seulement, je ne comprends pas l'intro qu'il fait sur un rém. Quelqu'un pourrait il m'aider ? Merci d'avance.

http://fr.youtube.com/watch?v=pI4ZjG8IQBU

stevepharma

1 photo
#
Oh purée l'avatar de l'année!!!!! icon_cheesygrin Tu l'as pris ou celui là????? hum

Echange Ampli Behringer V-tone GM 108 très bon état disponible sur Lyon, contre pédale, épave de gratte, effet divers,...........
adel?

1 photo
#
Hors suj bump

sandinista

Petit causeur
Mega Tabber
Mangeur de Tabs
6 photos
15 messages
#
stevepharma
stevepharma a écrit :
Oh purée l'avatar de l'année!!!!! icon_cheesygrin Tu l'as pris ou celui là????? hum

David Bowie, période " Let's Dance " 1983, c'est surement pas sa meilleure photo mais...total respect pour le Thin White Duck maitre

Sinon, Guillaume, ton lien sur You-tube ne fonctionne pas...vidéo privée ???

A+ smiley-guitar

#
Il y'a plein de tab très bien de paint it black notament sur partoch. Ce morceaux n'a rien de très compliqué =) !

#
Vas voir la tab de ledeuth, pour moi c'est la meilleure trouvée sur le site (et en première place). smile_cool

sugar mountain

3 photos
#
salut

tu as des versions sur guitar pro qui sont biens

à toi de smiley-guitar

geostras

1 photo
#
Bah depuis 2008 il a du trouver, puis il a 0 messages sur 100 jours, donc un bon bout de temps qu'il est plus venu icon_cheesygrin

sugar mountain

3 photos
#
Merci de l'info d'habitude je regarde tjrs la date...

geostras

1 photo
#
Bah ça arrive, j'ai bien remonté un topic de 2004 icon_cheesygrin

#
Voici la tab de paint it black ( je ne sais pas si c'est la vrai car je l'ai faite a loreille mais je la trouve bien )

-0-2-3-5-3-2-0-0---0-2-0----0-2-3-5-3-2-0-0----0-2---0----12---10-10-3-3-5-5--7-7-7-7-5-3-7
-----------------------4--------4-------------------------4------4------------------------------------------
-------------------------------------------------------------------------------------------
-------------------------------------------------------------------------------------------
-------------------------------------------------------------------------------------------
-------------------------------------------------------------------------------------------

-12-10-10-3-3-5-5-7-7-7-7-5-3-7--7-12-12-12-12-7-12-7-12-7-12-14-10-8-7
-----------------------------------------------------------------------------
----------------------------------------------------------------------------
----------------------------------------------------------------------------
--------------------------------------------------------------------------
-------------------------------------------------------------------------

7-12-12-12-12-7-12-7-12-7-12-14-10-8-7-5-0-2-3-5-3-2-0-0---0-2-0----0
---------------------------------------------------------------------------------4----------4

geostras

1 photo
#
Toi tu dois pas lire les messages précédents dans un topic icon_redface

sugar mountain

3 photos
#
J'allais dire la même chose que toi. wink


nouveau message Répondre Recherche


Répondre à cette discussion >>

plan Plan du Forum Tablatures||Tags : paint, trouve, black, des, travailler, joue, mal, video, apprendre