Come As You Are. Nirvana. Accord en Re ou en Mi?

close
FILTRES DE LA RECHERCHE


Petit causeur
36 messages
Bonjours,

J' ai commencé la guitare (enfin je m' y suis réellement mis) il y a deux semaine. Comme j' adore Nirvana, j' ai commencé par "Come As You Are"

D' abord, ça sonnait faux : on me l' avait accordé en Fa. Je l' ai donc réacordé en Mi.
Or, j' ai entendu dire que la guitare de Kurt était accordée en Re. Quid?
Doit-je jouer la tab sur les deux cordes du milieu?

Merci d' avance :)

Au fait, merci à tout ceux qui ont fait de ce site ce qu' il est wink

alors je débute moi aussi mais il me semble que effectivement sa guitare et accorder en Re mais sa na pas beaucoup d'importance pour le morceau mais je te conseil de la jouer sur les deux corde les plus grave





----------------------------------------
----------------------------------------
----------------------------------------
----------------------------------------
----------2--2---------2----------------
--0-0-1-2--2---2-2-1-0---0-0------------


God of Partoch
Petit tabber
Petit Downloader
11 photos
13133 messages
Modérateur
ca depend,
car si tu joues avec un bassiste,
il aura du mal sur les cordes graves,
il va te la jouer sur sa 3eme corde,
c'est à dire en Ré..

perso, je sais que lorsque je la joue en groupe,
c'est en Ré.


God of Partoch
Petit tabber
Petit Downloader
11 photos
13133 messages
Modérateur
Come as you are

|-----|-----------------------------|
|-----|-----0---0---------2-----2---| X2 bat X2
|-0-0-|-1-2---2---2-2-1-0---0-0---0-|
|-----|-----------------------------|
|-----|-----------------------------|

1-Couplet 1

2-couplet 2

REFRAIN:....
E................... G...... X4
memoria.....

3- couplet 3
REFRAIN: (memoria X4)
BRIDGE:
A F C..............
X 2

TRANSITION:
e---------------------------------1--1-------- X2
b--------------------------------------------
g-----0----0------------2---------------------------
d--2----2----2--2--1--0----0------------0--1--------

puis SOLO: (basse continu idem ci dessus)....................
e---------------------------------------------------
b----------------------------------------------------
g4-7-7-9-94-4-4-7--9-94-4-4-7--9-9/11-11-9-9-7-7-0 X3
d---------------------------------------------------3

e---------------------------------------------------
b------------------------------------------------
g4-4-7--9-94-4-4-7-9-94-4-4--7--9-9/11-11-11-9--
d------------------------------------------------3--3

REFRAIN: (memoria X4) BRIDGE... INTRO X4 OUTRO: F#





Petit causeur
36 messages
Tient, les partitions que j' ai vu le jouait sur les deux cordes graves.

Merci à tous pour vos réponses.


God of Partoch
5 photos
7953 messages
elles se joue sur les deux cordes graves
mais il me semble bien que sur Nevermind, Kurt est accordé un ton en dessous


God of Partoch
Petit tabber
Petit Downloader
11 photos
13133 messages
Modérateur
 Citation :
Tient, les partitions que j' ai vu le jouait sur les deux cordes graves

oui, c'est le sujet de la conversation..
sur les deux cordes graves,
c'est en Mi,

sur les deux cordes du milieu,
c'est en Ré..

les 2 sonnent justes,
mais avec un ton de difference...

en plus je prefere la chanter en Ré,
mais bon ca apres c'est perso!






>> Plan du Forum Débutants | suivi de la discussion | Tags : accord, merci, guitare, come, deux, commenc, fait, you, are

+