Besoin d'aide

close
FILTRES DE LA RECHERCHE


1 message
J'ai chopé la tablature d'une chansson pas très connue des Plain White T's. Mais si, vous savez 'Hey there Delilah'! >.<

Bref, ce morceau se joue en picking et j'ai un peu de mal à déchifrer la tablature. Est-ce que quelqu'un pourrait m'aider s'il vous plait? maitre

=> Tablature <=

Intro:

D (xx023x)
F#m (xx422x)

Verses:

D (xx032x)
F#m (xx422x)
Bm (x2433x)
G (3xx03x)
A(1) (x0x22x)
A(2) (x0x220)

Chorus:

D (xx023x)
D/A(1) (x0x32x)
Bm (x2443x)
Bm/C# (x4x43x)

Bridge:

G (3xx03x)
A(1) (x0x22x)
D/C# (xx023x)
A(2) (x0x220)


Artiste très motivé
283 messages
Plain White T's
Hey there delilah
Extrait de l'album "Every second counts"



Intro:
D F#m D F#m
e|-----------------------------------------------------------------|
B|---3---3---3---3---2---2---2---2---3---3---3---3---2---2---2---2-|
G|---2---2---2---2---2---2---2---2---2---2---2---2---2---2---2---2-|
D|-0---0---0---0-------------------0---0---0---0-------------------|
A|-----------------4---4---4---4-------------------4---4---4---4---|
E|-----------------------------------------------------------------|


Couplets 1 & 2:
D F#m D F#m
e|-----------------------------------------------------------------|
B|---3---3---3---3---2---2---2---2---3---3---3---3---2---2---2---2-|
G|---2---2---2---2---2---2---2---2---2---2---2---2---2---2---2---2-|
D|-0---0---0---0-------------------0---0---0---0-------------------|
A|-----------------4---4---4---4-------------------4---4---4---4---|
E|-----------------------------------------------------------------|

Bm G A Bm A
e|-----------------------------------------------------------0---0-|
B|---3---3---3-------3---3---2---2---3---3---3---3---2---2---2---2-|
G|---4---4---4-------0---0---2---2---4---4---4---4---2---2---------|
D|-----------------------------------------------------------------|
A|-2---2---2---0-----------0---0---2---2---2---2---0---0---0---0---|
E|-----------------3---3-------------------------------------------|

D F#m D F#m
e|-----------------------------------------------------------------|
B|---3---3---3---3---2---2---2---2---3---3---3---3---2---2---2---2-|
G|---2---2---2---2---2---2---2---2---2---2---2---2---2---2---2---2-|
D|-0---0---0---0-------------------0---0---0---0-------------------|
A|-----------------4---4---4---4-------------------4---4---4---4---|
E|-----------------------------------------------------------------|

Bm G A Bm A
e|-----------------------------------------------------------0---0-|
B|---3---3---3-------3---3---2---2---3---3---3---3---2---2---2---2-|
G|---4---4---4-------0---0---2---2---4---4---4---4---2---2---------|
D|-----------------------------------------------------------------|
A|-2---2---2---0-----------0---0---2---2---2---2---0---0---0---0---|
E|-----------------3---3-------------------------------------------|


Refrain:
D Bm D Bm
e|--------------------------------------------------------------------|
B|---3---3---3---3----3---3---3---3----3---3---3---3----3---3---3---3-|
G|---2---2---2---2----4---4---4---4----2---2---2---2----4---4---4---4-|
D|-0---0---0-------------------------0---0---0------------------------|
A|-------------0----2---2---2---4----------------0----2---2---2---4---|
E|--------------------------------------------------------------------|

D Bm D Bm
e|--------------------------------------------------------------------|
B|---3---3---3---3----3---3---3---3----3---3---3---3----3---3---3---3-|
G|---2---2---2---2----4---4---4---4----2---2---2---2----4---4---4---4-|
D|-0---0---0-------------------------0---0---0------------------------|
A|-------------0----2---2---2---4----------------0----2---2---2---4---|
E|--------------------------------------------------------------------|


Pont:
G A D Bm
e|------------------------------------------------------------------|
B|---3---3---3---3---2---2---2---2---3---3---3-------3---3---3------|
G|---4---4---4---4---2---2---2---2---2---2---2-------4---4---4------|
D|---------------------------------0---0---0------------------------|
A|-----------------0---0---0---0---------------0---2---2---2---0----|
E|-3---3---3---3----------------------------------------------------|

G A D Bm
e|------------------------------------------------------------------|
B|---3---3---3---3---2---2---2---2---3---3---3-------3---3---3------|
G|---4---4---4---4---2---2---2---2---2---2---2-------4---4---4------|
D|---------------------------------0---0---0------------------------|
A|-----------------0---0---0---0---------------4---2---2---2---0----|
E|-3---3---3---3----------------------------------------------------|

G A Bm
e|------------------------------------------------------------------|
B|---3---3---3---3---2---2---2---2----3---3---3---3---3---3---3---3-|
G|---4---4---4---4---2---2---2---2----4---4---4---4---4---4---4---4-|
D|------------------------------------------------------------------|
A|-----------------0---0---0---0----2---2---2---2---2---2---2---2---|
E|-3---3---3---3----------------------------------------------------|

A
e|-------------------0---0---0---0----------------------------------|
B|---2---2---2---2---2---2---2---2----------------------------------|
G|---2---2---2---2--------------------------------------------------|
D|------------------------------------------------------------------|
A|-0---0---0---0---0---0---0---0------------------------------------|
E|------------------------------------------------------------------|


Couplet 3:
D F#m D F#m
e|-----------------------------------------------------------------|
B|---3---3---3---3---2---2---2---2---3---3---3---3---2---2---------|
G|---2---2---2---2---2---2---2---2---2---2---2---2---2---2---------|
D|-0---0---0---0---4---4---4---4---0---0---0---0---4---4---4-------|
A|-----------------------------------------------------------------|
E|-----------------------------------------------------------------|

Bm G A Bm G A
e|-----------------------------------------------------------------|
B|---3---3---3-------3---3---2---2---3---3---3-------3---3---2---2-|
G|---4---4---4-------4---4---2---2---4---4---4-------4---4---2---2-|
D|-----------------------------------------------------------------|
A|-2---2---2---0-----------0---0---2---2---2---0-----------0---0---|
E|-----------------3---3---------------------------3---3-----------|

Bm G A Bm A
e|-------------------------------------------------------------------0---0---0---

0-|
B|---3---3---3-------3---3---2---2---3---3---3---3---2---2---2---2---2---2---2---

2-|
G|---4---4---4-------4---4---2---2---4---4---4---4---2---2---2---2---------------

--|
D|-------------------------------------------------------------------------------

--|
A|-2---2---2---0-----------0---0---2---2---2---2---0---0---0---0---0---0---0---0-

--|
E|-----------------3---3---------------------------------------------------------

--|


Fin
D
e|...-----------------2-|
B|...---3---3---3---3-3-|
G|...---2---2---2---2-2-|
D|...-0---0---0-------0-|
A|...-------------0-----|
E|...-------------------|



Artiste en devenir
2 photos
483 messages
En fait les position des doit pour chaque accord sont indiqué entre parenthèse

par exemple le D (xx023x)

c'est

---x---
---3---
---2---
---0---
---x---
---x---

Après la rhtymique à reproduire d'oreille en écoutant le morceau moi je le connais pas.


Star du Forum
911 messages





>> Plan du Forum Tablatures | suivi de la discussion | Tags : tablature, plain, WHITE, white, PLAIN, savez, hey, delilah, there

+