Oh my God de Kaiser Chief, je trouve pas la tab :(.

close
FILTRES DE LA RECHERCHE


Artiste très motivé
277 messages
Bonjours tout le monde.

Je cherche la tab (ou guuitar pro) de oh my god de Kaiser Chief mais le mieux que j'ai trouvé c'est ça: http://www.ultimate-guitar.com/tabs/k/kaiser_chiefs/oh_my_god_tab.htm (donc pour le rythme je sais pas...).
Ou alors j'ai trouvé des tab guitar pro mais qui voulais pas s'ouvrir avec mon guitar pro 5 -_-.
Help! Merci d'avance. smiley-guitar

hum

Kaiser Chiefs - Oh my God

standard tuning EADGBE


intro:

E ------------------10----------------|
B ------------------10----------------|
G ---10h12-12^---------------12^------|
D 12-----------12---------------------|
A ------------------------------------|
E ------------------------------------|

E ------------------10----------------|
B ------------------10----------------|
G ---10h12-12^---------------12^------|
D 12-----------12---------------------|
A ------------------------------------|
E ------------------------------------|


Dm Dm
Time on your side that will never render
G G
The most beautiful thing you can ever spend
Dm Dm
But you work in a shirt with your nametag on it
G G
Drifting apart like a plate tectonic


G Dm
It don't matter to me
C Bb
It's all I wanted to be
G Dm
Is a million miles from here
C Bb Bb
Somewhere more familiar


Dm Dm
To much time spent dragging the past up
G G
If I didn't see you not looking what I messed up
Dm Dm
Settling down in your early twenties
G G
Sucked more blood than a backstreet dentist


G Dm
It don't matter to me
C Bb
It's all I wanted to be
G Dm
Is a million miles from here
C Bb Bb
Somewhere more familiar


Dm
Oh my god I can't believe it
Dm Bb C
I've never been this far away from home

Dm Dm
Red shirts looking for greater glory
G G
The only thing growing is on this story
Dm Dm
Knock me down I'll get right back up again
G G
Come back strong like the poweredup pacman


G Dm
It don't matter to me
C Bb
It's all I wanted to be
G Dm
Is a million miles from here
C Bb Bb
Somewhere more familiar



Dm
Oh my god I can't believe it
Dm Bb C
I've never been this far away from home



solo

E 1-----------1---------------1-----------1-------------|
B --1-3---------1-3-5-6---------1-3---------1-3-5-6-8---|
G ------------------------------------------------------|
D ------------------------------------------------------|
A ------------------------------------------------------|
E ------------------------------------------------------|

E 1-----------1---------------1-----------1-------------------------
B --1-3---------1-3-5-6---------1-3---------1-3-5-6-8-9-10-11-12-13-
G ------------------------------------------------------------------
D ------------------------------------------------------------------
A ------------------------------------------------------------------
E ------------------------------------------------------------------

E -------------------------|
B -14-15-16-17-18-19-20-21-|
G -------------------------|
D -------------------------|
A -------------------------|
E -------------------------|


Dm
Oh my god I can't believe it
Dm Bb C
I've never been this far away from home


---------


Artiste très motivé
277 messages
Bas oui mais c'est pour le rythme enfait que je sais pas...






>> Plan du Forum Tablatures | suivi de la discussion | Tags : tab, KAISER, pro, guitar, chief, kaiser, CHIEF, trouv, god

+