Tempo Foule sentimentale (alain souchon)


nouveau message Répondre
Recherche

#
Bonjour,

Voilà je m'use les doigts sur Foule sentimentale et je recherche le bon tempo.
C'est pas faute d'avoir écouter la chanson mais j'ai du mal avec le rythme.
Quelqu'un pourrait-il me le donner ?

Petite suggestion : ça serait pas mal de l'avoir avec les tablatures icon_redface

Merci à vous !

baxoey

Petit causeur
37 messages
#
Donc si on prend cette tablature:

Em ^ Am ^ D ^ B7 ^ Em ^ C ^ Am ^ B7 ^
E--0-0-0-0--0-0-0-0-|-2-2-2-2--2-2-2-2-|-0-0-0-0--0-0-0-0-|-0-0-0-0--2-2-2-2---|
B--0-0-0-0--1-1-1-1-|-3-3-3-3--0-0-0-0-|-0-0-0-0--1-1-1-1-|-1-1-1-1--0-0-0-0---|
G--0-0-0-0--2-2-2-2-|-2-2-2-2--2-2-2-2-|-0-0-0-0--0-0-0-0-|-2-2-2-2--2-2-2-2---| (X3)
D--2-2-2-2--2-2-2-2-|-0-0-0-0--1-1-1-1-|-2-2-2-2--2-2-2-2-|-2-2-2-2--1-1-1-1---|
A--2-2-2-2--0-0-0-0-|-0-0-0-0--2-2-2-2-|-2-2-2-2--3-3-3-3-|-0-0-0-0--2-2-2-2---|
E--0-0-0-0--0-0-0-0-|-x-x-x-x--x-x-x-x-|-0-0-0-0--x-x-x-x-|-0-0-0-0--x-x-x-x---|

Regle 1:Tu joue au médiator
Regle 2:2 aller 2 retour en alternant les basses et les aigues
Regle 3:Au 4eme coup tu joue les cordes à vides
Regle 4:Tu joue un temps fort sur le 3eme coup

Donc pour les accords tu fait? ("a" signifie aller et "r" signifie retour):

Em ^ Am ^
E------0-0------0-0-|
B------0-0------1-0-|
G------0-0--2-2-2-0-|
D--2-2------2-2-----|
A--2-2------0-0-----|
E--0-0----
a r a r a r a r

Donc tu remarque que au 4 eme coup tu joue les cordes à vides avec un coup fort au 3 eme coup, tu fait la même chose pour tous les autres accords.

J'espere que tu m'a compris!slt!

#
[quote='baxoey']Donc si on prend cette tablature:

Em ^ Am ^ D ^ B7 ^ Em ^ C ^ Am ^ B7 ^
E--0-0-0-0--0-0-0-0-|-2-2-2-2--2-2-2-2-|-0-0-0-0--0-0-0-0-|-0-0-0-0--2-2-2-2---|
B--0-0-0-0--1-1-1-1-|-3-3-3-3--0-0-0-0-|-0-0-0-0--1-1-1-1-|-1-1-1-1--0-0-0-0---|
G--0-0-0-0--2-2-2-2-|-2-2-2-2--2-2-2-2-|-0-0-0-0--0-0-0-0-|-2-2-2-2--2-2-2-2---| (X3)
D--2-2-2-2--2-2-2-2-|-0-0-0-0--1-1-1-1-|-2-2-2-2--2-2-2-2-|-2-2-2-2--1-1-1-1---|
A--2-2-2-2--0-0-0-0-|-0-0-0-0--2-2-2-2-|-2-2-2-2--3-3-3-3-|-0-0-0-0--2-2-2-2---|
E--0-0-0-0--0-0-0-0-|-x-x-x-x--x-x-x-x-|-0-0-0-0--x-x-x-x-|-0-0-0-0--x-x-x-x---|

Regle 1:Tu joue au médiator
Regle 2:2 aller 2 retour en alternant les basses et les aigues
Regle 3:Au 4eme coup tu joue les cordes à vides
Regle 4:Tu joue un temps fort sur le 3eme coup

Donc pour les accords tu fait? ("a" signifie aller et "r" signifie retour):

Em ^ Am ^
E------0-0------0-0-|
B------0-0------1-0-|
G------0-0--2-2-2-0-|
D--2-2------2-2-----|
A--2-2------0-0-----|
E--0-0----
a r a r a r a r

Donc tu remarque que au 4 eme coup tu joue les cordes à vides avec un coup fort au 3 eme coup, tu fait la même chose pour tous les autres accords.

J'espere que tu m'a compris!slt!





moi,j'ai pas comprie smiley-guitar

baxoey

Petit causeur
37 messages
#
icon_cheesygrin ok!

Donc je reprend:

Regle 1: Tu joue au médiator (compris?)

Regle 2: 4 coups sur chaque accords (aller, retour, aller, retour) en alternant les basses et les aigues en faisant (basse, basse, aigue, aigue), donc ça fait > 1er coup (aller sur les 3 cordes de basses Mi La Ré); 2 eme coups (retour sur les 3 cordes de basses Ré La Mi); 3eme coups (aller sur les 3 cordes aigues Sol Si Mi); 4 eme coups (retour sur les 3 cordes aigues Mi Si Sol). Ensuite tu change d'accord et tu recommence!(compris?)

Rappel:Les notes à vides sur une guitare (accordé standard) Mi La Ré Sol Si Mi

Regle 3: Au 4 eme coups lors du retour de médiator sur les 3 cordes aigues Mi Si Sol, tu les joues à vides, tu a juste à lever tes doigts de l'accords, cela te permet entre chaque passage d'accords en accords d'obtenir plus de chaleur sur le morceau! Et te permet aussi lorsque tu les jouent à vides de prendre le temps de poser t'es doigts sur l'accords qui va suivre!(compris?)

Regle 4: Tu donne un coup plus fort sur le 3eme coups (compris?)

Alors? wink j'peux pas expliquer mieux!qu'est ce que tu comprends pas?

savanah

3 messages
#
pourquoi faire compliquer quand on peut faire simple ? 2 aller retour avec temps forts sur 2 et 4 ... ça le fait aussi non ?

#
Les accords ce serait pas plutot : Em^Am^D7 ^B7^Em^Am^D7 ^B7 ?

Enfin c'est comme ça que je la joue moi =)

nicosic

Petit causeur
53 messages
#
Tout à fait les accords sont Em,Am,D7,B7 puis Em,C,Am,B7
tab ici : http://www.abc-tabs.com/cache/tab_en_10825.htm

J'ai toujours eu du mal avec ce Si7 ... car il faut plaquer 4 doigts ds une position très peu utilisée ... X21202 et très près du manche, donc les cordes sont plus tendues ...

Pour foule sentimentale, essaye d'abord de faire un Am X02210 suivi de Ré7 XX0212 ... jusqu'à que ça passe bien !!!

Ensuite fait ton Ré7 XX0212 suivi de ton Si7 X212 02 en ajoutant simplement l'auriculaire (petit doigt) sur la corde de mi aigüe (la plus fine).

Tu as donc remarqué que le Ré7 et le Si7 utilise les même position de doigts ... mise à part l'auriculaire ajouté sur le Si7


Bonne gratte
Nicos


nouveau message Répondre Recherche


Répondre à cette discussion >>

plan Plan du Forum Tablatures||Tags : tempo, mal, avoir, les, foule, sentimentale, voila, bon, bonjour