bases des morceaux blues...

close
FILTRES DE LA RECHERCHE

lu tout le monde !!
bon je voudrais connaitre...comment dire... la base des morceaux blues, en effet j'ai remarqué que beaucoup de morceaux blues utilisait des MPD entrecoupées de petit plans, ou au lieu des MPD un plan comme dans "caltfish blues" (je suis pas sur pour le nom du morceau icon_redface )

je voudrais mieux les comprendre pour pouvoir en composer plus facilement

merci d'avance smiley-guitar

+saturne+

Star du Forum
891 messages
hello,
je ne sais pas ce que c'est des MPD lol. mais je te conseille de repiquer d'oreille ou avec des tablatures des solos de blues de plusieurs guitaristes pour t'imprégner du style.

omp

Ben moi non plus j'connais po...

C'est quoi des MPD ?

+saturne+

Star du Forum
891 messages
tu veux peut-être parler de la rythmique shuffle en double-stop?
genre :

-------------------------------
---------------------------
----------------------------
-------------------------------
-2-2-4-4-2-2-4-4-----------
-0-0-0-0-0-0-0-0--------------


+saturne+
+saturne+ a écrit :
tu veux peut-être parler de la rythmique shuffle en double-stop?
genre :

-------------------------------
---------------------------
----------------------------
-------------------------------
-2-2-4-4-2-2-4-4-----------
-0-0-0-0-0-0-0-0--------------


dsl pour le retard icon_redface

Oui je parlais bien de ca, c'est comme ca que ca s'appelle sur ma méthode ^^




>> Plan du Forum Solfège | suivi de la discussion | Tags : des, blues, morceaux, voudrais, mpd, utilisait, beaucoup, remarqu, effet



+