comment faire des tablatures sous word

close
FILTRES DE LA RECHERCHE


God of Partoch
Petit tabber
Petit Downloader
11 photos
13046 messages
Modérateur
Je vais peut etre enfoncer une porte ouverte,
peut etre que tout le monde le sait dejà...

mais je crois pas.

depuis qques annees, j'ecris toutes mes tabs en bloc note,
car de cette facon, elle sont directement compatible avec internet,
le forum, etc....
et puis surtout c'etait la seule facon
que j'avais trouvé pour qu'elles soient bien sur papier,

sinon, une fois imprimée,
avec d'autres logiciels,
les notes sont toujours decallées,
un peu comme ca:
e|-------------------0---------|--------------2----3--2---------|
b|--0-----0-----3----3--3--0---|--------------3-------3--0------|
g|--0-----0-----0-------0--0---|---0----0-----2-------2--0------|
d|--0-----0-----2----------0---|---2----2-----0----------0------|
a|--2-----2-----3--------------|---2----2-----------------------|
E|--3-----3--------------------|---0----0-----------------------|

seulement le bloc note, c'est bien, c'est leger,
mais on ne peux pas changer le taille de police, la couleur,
inclure une portée (partition) au format jpg ou bmp, etc...

sous word, ou autre TRAITEMENT DE TEXTE,
ce serait tellement mieux!
et bien, ca fonctionne parfaitement si on utilise la police:
COURRIER NEW,

voilà, c'est tout,
je voulais vous faire partager ma trouvaille...

PS,
evidement, sur le forum,
il suffit de cliquer sur insertion,
tablature,;
et ca donne ca
e|-------------------0---------|--------------2----3--2---------|
b|--0-----0-----3----3--3--0---|--------------3-------3--0------|
g|--0-----0-----0-------0--0---|---0----0-----2-------2--0------|
d|--0-----0-----2----------0---|---2----2-----0----------0------|
a|--2-----2-----3--------------|---2----2-----------------------|
E|--3-----3--------------------|---0----0-----------------------|


wink


God of Partoch
Petit tabber
Petit Downloader
11 photos
13046 messages
Modérateur
image du forum


Rappel, les paroles sont interdites sur partoch...
d'ou le flou...






>> Plan du Forum Tablatures | suivi de la discussion | Tags : -----, ----, -------, ----------, bien, word, etc, police, forum

+