whole lotta love

close
FILTRES DE LA RECHERCHE

----------------------------------
----------------------------------
----------------------------------
-------------9-9-----9-9----9-9---
---5---5--7--7-7-----7-7----7-7---
-7---7-----------0-0----0-0----0-0
j'ai retrouvé a l'oreille l'intro mais je ne sais pas si c'est bon car je trouve plein de tablatures de ce morceau qui sont différentes alors je sais pas quoi penser, si ma version n'est pas bonne pouvez vous m'indiquer la bonne tab plz ? merci d'avance


Au Hit Parade
1 photo
1589 messages
ah merci, mais si j'ai bien compris ma tab est fausse ? icon_redface


Star du Forum
2 photos
980 messages
Dans le Songbook "Off the record", l'intro est notée comme suit :

E||-------------------------|----------------------------------|
B||-------------------------|----------------------------------|
G||-------------------------|----------------------------------|
D||-------------------------|--9-------9-------9-------9-------|
A||----------------5-5L--5--|--7-x-x-x-7-x-x-x-7-x-x-x-7-x-x-x-|
E||--------------7-----7----|--0-0-0-0-0-0-0-0-0-0-0-0-0-0-0-0-|
(5L = note liée)

---------------------------------|
---------------------------------|
------------------x-x------------|
--9-------9-------x-x------------|
--7-x-x-x-7-x-x-x-x-x---5-5L--5--|
--0-0-0-0-0-0-0-0-x-x-7-----7----|

Donc finalement pas très loin de ce que tu as trouvé tout seul :)


God of Partoch
1 photo
7822 messages
... je ne sais pas si tu as le droit de publier sa icon_redface
En attendant la reponse d'un modérateur ou de Alex, mais vu qu'il y a un bout de partition icon_cheesygrin

on sais jamais, enfin moi je ne clique pas sur abus, ce n'est pas mon boulo razz


Sous Dieu du Forum
Mega Tabber
3 photos
3491 messages
C'est tiré d'un songbook la tab, ça veut dire ce que ça veut dire.wink

Droits d'auteur.wink


Pilier de Forum
Tabber motivé
1 photo
1386 messages
flobass
flobass a écrit :
C'est tiré d'un songbook la tab, ça veut dire ce que ça veut dire.wink

Droits d'auteur.wink


eh oui ! wink



hs @ flobass : çafait longtemps que j'ai plus vu killbass, il est ou?


God of Partoch
1 photo
7822 messages
tu as vu flobass, je t'ai laissé l'honeur d'appuyer sur abus, je l'ai meme mit



 Citation :
on sais jamais, enfin moi je ne clique pas sur abus, ce n'est pas mon boulo razz



Sous Dieu du Forum
Mega Tabber
3 photos
3491 messages
koyaanisqatsi57
koyaanisqatsi57 a écrit :
hs @ flobass : çafait longtemps que j'ai plus vu killbass, il est ou?


Aucune idée. icon_redface
Je m'inquiètait hier, ça fait un moment que l'on ne l'a pas vu c'est vrai.


quentin-skate
quentin-skate a écrit :
tu as vu flobass, je t'ai laissé l'honeur d'appuyer sur abus, je l'ai meme mit


Ce qui est complétement stupide, ce n'est pas un honneur d'appuyer sur abus, et je devrais appuyer moins souvent sur ce bouton si les membres respectaient les règles d'utilisation du forum.
Tu vois que quelqu'un fait une faute sur le forum, tu appuie sur abus, ça me parait super logique, enfin, beaucoup de monde ne résonne pas comme moi apparement. http://www.partoch.com/condition.php


quentin-skate
quentin-skate a écrit :
on sais jamais, enfin moi je ne clique pas sur abus, ce n'est pas mon boulo


Quand je vois ceci, ça me déprime... icon_redface
C'est pour qui le bouton abus si c'est pas pour les membres ???
Réponse : pour personne, ce bouton est fait pour que les membres avertissent d'un problème ou d'une mauavise utilisation du forum, il est pas là pour décorer.

bah je crois bien que je vais m'acheter le song book de led zeppelin II icon_cheesygrin
mais bon le -9-9---- sonne aussi bien que la version avec les notes étouffées donc je vais voir icon_redface
7-7----
----0-0

cool ca va me donner du boulot pour les vacs je commencais a m'ennuyer ^^


Au Hit Parade
1 photo
1589 messages
e ---------------------------------------------------------------------------|
B ---------------------------------------------------------------------------|
G -----------------9--------9--------9---------------------------------------|
D -----------------9--------9--------9---------------------------------------|
A --------5----5---7--------7--------7---------------------------------------|
E --(5)>7----7-------0-0-0----0-0-0------------------------------------------|

e -------------12--------------------------------------|
B ----10/12-------15--12-------------------------------|
G ------------------------15p14p12--14p12--14>(16)-----|
D -----------------------------------------------------|
A -----------------------------------------------------|
E -----------------------------------------------------|

/-3-- /-3--
e -------------------------------------------------|
B -------------------------------------------------|
G -2/4---4p2--0--2p0-0--2p0------------------------|
D ---------------------------2p0--2p0--------------|
A -------------------------------------2-----------|
E ---------------------------------------------0---|


e ----------12-10>(12)--12--15--10>(12)-|-12 15>(19)>15--12----15p12-|
B -10>(12)--12--------------------------|-------------------14-------|
G --------------------------------------|----------------------------|
D --------------------------------------|----------------------------|
A --------------------------------------|----------------------------|
E --------------------------------------|----------------------------|

/------3------ /---3---
e ----19>(21)-19---18-17--15-----15-----|---------------------------17-19----|
B -17------------------------17-----17--|---17-19-19>(21)--19>(21)--------17-|
G --------------------------------------|------------------------------------|
D --------------------------------------|------------------------------------|
A --------------------------------------|------------------------------------|
E --------------------------------------|------------------------------------|
ca pourra t'éviter de prendre un songbook


Au Hit Parade
1 photo
1589 messages
E|------------------------------|----------------------------------|
B|------------------------------|----------------------------------|
G|------------------------------|----------------------------------|intro
D|---0----0--2-------2-------2--|-------2-------2-------2-------2--|
A|-2----2-----------------------|----------------------------------|
E|-------------0-0-0---0-0-0----|-0-0-0---0-0-0---0-0-0---0-0-0----|

E|-------------------|
B|-------------------|
G|-------------------|
D|-0-0-0-0-0----9---| chorus 4 fois
A|-----------7-------|
E|-------------------|


oh mici !! icon_cheesygrin






>> Plan du Forum Débutants | suivi de la discussion | Tags : ----, sais, bonne, ---, -----, whole, bon, intro, retrouv

+