[Tab débutant] Petit garçon


nouveau message Répondre
Recherche

#
Bonjour,

J'aimerais poser une tablature de débutant assez simple, mais il faut connaitre la mélodie.
Voici les paroles pour ceux qui ne connaissent pas : http://www.paroles.net/chansons/19959.htm (j'espère que c'est autorisé icon_redface )

Je suis un grand débutant donc on se moque pas, j'ai fait la chanson avec la guitare pour vous donner la mélodie vous pouvez la télécharger (aucune inscription, rien de particulier) ici :
http://www.zshare.net/video/2591886a2e4cbd/

-------0-|--0-1-0---|----0-------|---------|-------0-|-0-3-1-0-1---|
---1-3---|--------3-|---3---3-1--|-----1-3-|---1-3---|-------------|
-0-------|----------|------------|-2-2-----|-0-------|-------------|
---------|----------|------------|---------|---------|-------------|
---------|----------|------------|---------|---------|-------------|
---------|----------|------------|---------|---------|-------------|

-------0--|-0-0-------------|-0-0-3-3-1---|---------3-1-|-0---|-----0-|-----0-|
-1-1-3----|-----1-3-3-3-0-1-|-----------3-|-----0-3-----|---3-|-1-3---|-1-3---|
----------|-----------------|-------------|-0-0---------|-----|-------|-------|
----------|-----------------|-------------|-------------|-----|-------|-------|
----------|-----------------|-------------|-------------|-----|-------|-------|
----------|-----------------|-------------|-------------|-----|-------|-------|

-------0-0---|-------------------|
-1-0-------3-|-3-3-3-3-3---0-----|
-----2-------|-----------2---2-0-|
-------------|-------------------|
-------------|-------------------|
-------------|-------------------|

Bonne chance !

marionette160

Petit causeur
2 photos
44 messages
#
oué ...

#
lol Si sa va c'est dur a déchifrer ^^

lamurge

Petit Downloader
1 message
#
nikel

jeguil

God of Partoch
9 photos
12926 messages
#
C'est une chanson de Graeme Allwrigtht titre original : Old Toy Tains. Mais la tonalité n'est pas tout à fait correcte la partition est écrite avec un bémol à la clé. hum
Désolé, mais la tab n'est pas exacte! J'ai la partoche sous les yeux et ça ne correspond pas.
Mais c'est bien d'avoir essayé!!! icon_redface ça prouve qu'il y en a qui travaillent!chanteur

A+

Tant qu'on n'a pas essayé...alors quand faut y aller, faut y aller!
#
Trop bien !!

sugar mountain

God of Partoch
3 photos
8396 messages
#
Hello

tu as Sandinista qui a sorti une belle tablature sur partoch wink


nouveau message Répondre Recherche


Répondre à cette discussion >>

plan Plan du Forum Tablatures||Tags : ---, debutant, www, melodie, paroles, net, htm, grand, donc