trouver une melodie sur une rytmique ?

close
FILTRES DE LA RECHERCHE


Artiste motivé
2 photos
231 messages
bonjours
se matin par hazard j'ai trouver ces deux mesure
e|-----------------|------------------
b|-----------------|------------------
g|------8------4---|------6-----------
d|----8-------4----|----6--------6----
a|6-6-----2-2------|4-4--------6------
e|-----------------|-------4-4-------- que des croche tempo 120

et je voudrais savoir étant totalement inculte en solfege comment trouver en se basant sur des gammes par exemple une partie solo et comment si possible trouver la gamme a collé dessu
d'avance merci et si quelqu'un a des cour de solfege ou nimporte quoi qui pourrai m'aider ici je suis preneur
a plus et bonne gratte


Star du Forum
891 messages
e|-----------------|------------------
b|-----------------|------------------
g|------8------4---|------6-----------
d|----8-------4----|----6--------6----
a|6-6-----2-2------|4-4--------6------
e|-----------------|-------4-4--------


ta tab est faite de powerchords, alors des gammes qui collent la dessus, il y en a des tonnes! cela dépend de la tierce que tu joue selon l'accord, puis on peut faire des enrichissement plus compliqués. ça dépend de la couleur musicale que tu veux donner.


Artiste motivé
2 photos
231 messages
merci d'avoir repondu mais c quoi une tierce ? icon_cheesygrin


Artiste motivé
2 photos
231 messages
bon bin je crois que j'ai pas mal de boulot ^^ merci encore mtn je va savoir que faire de mes nuits smiley-guitar






>> Plan du Forum Solfège | suivi de la discussion | Tags : trouver, des, comment, solfege, --------, par, voudrais, tempo, savoir

+