recherche de tablature "temps modernes"


nouveau message Répondre
Recherche

#
B'jour, voila je cherche la tablature de Charlie Chaplin "les temps modernes".
J'ai cherché sur la toile, sur partoch mais rien, il ta que le debut...
Si quelq'un l'avait complete se serai vraiment cool
merci smiley-guitar



#
-7-8-7-6-7-8-7-|-7-8-7-12-5-5-3-|-3-5-3-0-3-3-1-|-3-1-0---------|
--------------------|----------------------|--------------------|----------3-2-3-|
--------------------|----------------------|--------------------|------------------|
--------------------|----------------------|--------------------|------------------|
--------------------|----------------------|--------------------|------------------|
--------------------|----------------------|--------------------|------------------|
lol ! Voilà ^^ xD Génial ! J'ai répondu avec 3 ans de retard ! bravo Bah, ça pourra toujours servir à quelqu'un ! (J'ESPERE icon_cheesygrin lol)

1 membre aime ça

#
---------------------------------------------------------------------------
---0------------------------0----------------------------------------------
----------------------------------------------0----------------------------
---------------------------------------------------------------------------
----------------4---------------------------2-----2---2--0--2--------------
-------0--1--0------010----------010---5-00---------0----------------------

#
Vous avez devant vous le topic qui a été déterré deux fois !! chanteur


nouveau message Répondre Recherche


Répondre à cette discussion >>

plan Plan du Forum Tablatures||Tags : modernes, cherche, temps, tablature, chaplin, les, charlie, recherche, jour