tablature je suis né dans la rue


nouveau message Répondre
Recherche

#
Bonjour a toutes et tous
je recherche la tablature exacte de la chanson je suis né dans la rue de johnny hallyday

je vous remercie d'avance



sandinista

Mega Tabber
Mangeur de Tabs
6 photos
8 messages
#
Les 3 accords de base sont A-D-E.
Sinon tu peut jouer ce petit riff sur 3 fois 2 cordes en acompagnement.

Tu joue ça 2 fois en faisant bien sonner le 5e coup de médiator hammer
D--2--4--5--4--2----2--4--5--4-
A--0--0--0--0--0----0--0--0--0-


Puis tu joue ça 1 fois.....idem..... hammer

G--2--4--5--4--2----2--4--5--4-
D--0--0--0--0--0----0--0--0--0-


Puis tu joue ça 1 fois.....idem..... hammer

D--2--4--5--4--2----2--4--5--4-
A--0--0--0--0--0----0--0--0--0-


Puis tu joue ça 1 fois

A--2--4--5--4-
E--0--0--0--0-


Puis tu joue ça 1 fois

G--2--2--4--5--4-
D--0--0--0--0--0-


Puis tu joue ça 1 fois

D--2--4--5--4---2--2-2-2-2-2-2-
A--0--0--0--0---2--2-2-2-2-2-2-
E------------------0--0-0-0-0-0-0-

Maintenant, tu reprend tout depuis le début, voila, c'est pas top compliqué, mais ça sonne bien.

Salut à + smiley-guitar

#
Bonjour,

Super ça sonne bien ! bravo

Mais est-que par hasard tu aurais le riff de l'intro...

Ce serait super sympa

Par avance

Merci

sandinista

Mega Tabber
Mangeur de Tabs
6 photos
8 messages
#
Moi, je suis vraiment pas un cador en solo, un peu meilleur en rythmique icon_cheesygrin

Aprés étude idea idea idea de l'intro sur cette vidéo You tube :
http://www.youtube.com/watch?v=0JtddKh5mc4

Tu peut essayer de broder et improviser autour de ces quelques notes à jouer en boucle avec un peu de distorsion si guitare élec........je te propose aussi un petit " hammer " enchainé par un petit " pulling off " pour faire joli wink .

e-----------------------------------------------------------------
B-----------------------------------------------------------------
G-----------------------------------------------------------------
D--5---7---7----5h7p5----5---7---7----5h7p5-----------------------
A--0--------------------------0-----------------------------------
E-----------------------------------------------------------------

A+ smiley-guitar


nouveau message Répondre Recherche


plan Plan du Forum Tablatures||Tags : tablature, rue, recherche, toutes, bonjour, exacte, chanson, avance, remercie