One


nouveau message Répondre
Recherche

#
le debut de one de métallica si il yen qui son interressé pour la jouai en entiere je vous passeré la suite
[tab]
--------------|--------------|--------------|-------------------|
|--------------|--------------|--------------|-------------------|
|--------------|--------------|--------------|----------------0--|
|-----4-----0--|-----4-----0--|-----4-----0--|-----4-----0-------|
|--2-----2-----|--------------|--2-----2-----|-------------------|
|--------------|--3-----3-----|--------------|--3-----3----------|

|--------------|--------------|--------------|-------------------|
|--------------|--------------|--------------|-------------------|
|-(0)----------|--------------|--------------|-------------------|
|-----4-----0--|-----4-----0--|-----4-----0--|-------------------|
|--2-----2-----|--0-----0-----|--------------|-----2-----2-------|
|--------------|--------------|--3-----3-----|--0-----2----------|


|--------------|--------------|--------------|-------------------|
|--------------|--------------|--------------|-------------------|
|*-------------|--------------|--------------|--------------0----|
|*----4-----0--|-----4-----0--|-----4-----0--|-----4-----0-------|
|--2-----2-----|--------------|--2-----2-----|-------------------|
|--------------|--3-----3-----|--------------|--3-----3----------|

|--------------|--------------|--------------|-------------------|
|--------------|--------------|--------------|-------------------|
|--------------|--------------|--------------|------------------*|
|-----4-----0--|-----4-----0--|-----4-----0--|------------------*|
|--2-----2-----|--0-----0-----|--------------|-----2-----2-------|
|--------------|--------------|--3-----3-----|--0-----2----------|


|---------------------------|----------------------|-----------------------|
|---------------------------|----------------------|-----------------------|
|---------------------------|----------------------|-----------------------|
|---------------------------|-----4-----0--0--4----|-----4-----0--4--4--0--|
|-----2-----2-----2--2h4--2-|--2-----2-----------0-|-----------------------|
|--0-----2-----0------------|----------------------|--3-----3--------------|


|-----------------------|-----------------------|-----------------------|
|-----------------------|-----------------------|-----------------------|
|-----------------------|-----------------------|-----------------------|
|-----4-----0--0--4-----|-----4-----0--4--4--0--|-----4-----0--0--4--0--|
|--2-----2-----------0--|-----------------------|--2-----2--------------|
|-----------------------|--3-----3--------------|-----------------------|


|-----------------------|-----------------------|-------------------|
|-----------------------|-----------------------|-------------------|
|--------------------0--|-(0)-------------------|-------------------|
|-----4-----0--4--4-----|-----4-----0--0--4--0--|-----2h4--2--------|
|--0-----0--------------|-----------------------|----------------4--|
|-----------------------|--3-----3--------------|--0----------2-----|


|-----------------------|-----------------------|------------------------|
|-----------------------|-----------------------|-----0h3p0----0h3p0-----|
|-----------------------|*--------0--7-----0----|------------4--------0--|
|---------0-------------|*-----7--------7-------|--5---------------------|
|-----5------------7----|---5-------------------|------------------------|
|--3---------3--5-------|-----------------------|------------------------|

|--------1--------|--------------0------|------------------|
|-----------1-----|-----------0-----0---|-----0------------|
|-----0--------0--|-----4--0-----------*|--------0--4------|
|--3--------------|--2-----------------*|--2---------------|
|-----------------|---------------------|-------------/3---|
|-----------------|---------------------|------------------|
[tab]

<center><i>Post édité le 22/12/2004 23:34:34 par webmaster</center></i>

#
connais pas ...j'ai confondu avec one de u2 icon_cheesygrin

#
( oups, un loupé, il me la mis 2 fois... desolé !! )

Post édité le 23/12/2004 10:43:48 par touyi


#
c'est vrai ke je l'ai jouée ca, et c'est tréés simpas a faire....


nouveau message Répondre Recherche


Répondre à cette discussion >>

plan Plan du Forum Tablatures||Tags : -----, --------, tab, -----------, one, ----, ----------, passere, ------------