Dorien


nouveau message Répondre
Recherche

#
Bonjour !
malgres les miliers de posts sur les gammes et les modes, je n'ai rien trouvé concernant la gamme dorienne ...
On dit qu'elle est tres utile en impro et qu'elle est un bon complement a la penta ( sur laquelle je tourne un peu en rond en impro) smiley-guitar
J'aimerai la trouver sous forme de scheme comme souvent les pentatoniques car je n'ais aucune formation de solfege ou autre, je li juste les tabs wink
Merci bien !

#
Salut, alors je vais te faire la gamme de sol dorien (qui se joue sur un accord mineur )

e--------------------------------------------------------------3--5--6--
B--------------------------------------------------3--5--6--------------
G-------------------------------------2--3--5---------------------------
D--------------------------2--3--5--------------------------------------
A----------------3--5----------------------------------------------------
E----3--5--6------------------------------------------------------------


si t'as d'autres questions sur le mode dorien n'hesites pas

#
Merci beaucoup !
bravo
Est-ce que cette gamme peut comme les pentatoniques se transposer sur tout le manche ?

Je vais tout de suite la travailler ! wink

#
Salut
Tu peus trouver sur: http://www.play-music.com
des aides-mémoires cartonnés et plastifiés pour: les accords de la guitare, les gammes de la guitare, les arpèges de la guitare, super pratiques et pas chers: - 4 euros pièce icon_cheesygrin

#
ca sonne bizard! je doit etre trop abitué aux penta !
je vais bosser ca et je vous tien au courant

#
Salut ,

je pense que dans ton cas : utiliser le mode dorien sur un accord mineur quelle qui soit (pas forcement II de la gamme majeur ) est plutot l'aprège ici Gm7 avec (2)9 et (6)13 donc c'est juste un enrichissement d'un accord mineur. Ce qui est bien avec cette facon de penser c'est que tu es libre d'enrichire ton arpège avec la quinte bémol (blue note) pour encore explorer de nouvelles couleurs .

aria35

1 photo
#
slt!!!

je te file 3 shéma en A dorien

-------------------------------5-7-8----------------
------------------------5-7-8-----------------------
------------------4-5-7-----------------------------
------------4-5-7-----------------------------------
-------5-7------------------------------------------
-5-7-8----------------------------------------------

---------------------------------7-8-10-------------
--------------------------7-8-10--------------------
----------------------7-9---------------------------
---------------7-9-10-------------------------------
--------7-9-10--------------------------------------
-7-8-10---------------------------------------------

-------------------------------------------12-14-15-
----------------------------------12-13-15----------
-------------------------11-12-14-------------------
-------------------12-14----------------------------
----------12-14-15----------------------------------
-12-14-15-------------------------------------------


j'espere que c'est ce que tu cherchais wink

#
Merci c'est parfait ! smiley-guitar

#
Bonjour,

Le dorien c'est bien mais les autres modes sont pas mal non plus et tres facile à travailler a partir du moment ou vous connaissez les gammes majeures.
smiley-guitar

#
salut à tous, voilà un lien qui pourrat surment vous aider:

http://www.manoucheries.com/phpBB2/viewtopic.php?t=6141 wink


nouveau message Répondre Recherche


Répondre à cette discussion >>

plan Plan du Forum Solfège||Tags : les, elle, impro, dit, dorienne, tres, dorien, complement, bon