partoche voulzy et de leforestier

close
FILTRES DE LA RECHERCHE


Pilier de Forum
1492 messages
salut a tous
ca fait un moment que je cherche en tablature "lê rêve du pecheur" de laurent voulzy et la tablature de maxime leforestier " une bille de verre" smiley-guitar si il y a une ame charitable , un bon samaritain de la guitare je le remercie d'avance

Celle de Voulzy doit etre sur le site.


Pilier de Forum
1492 messages
non elle n'y ait pas mais j'ai l'ipression que pour les membres vip ont accès a plus de tablatures , me trompe-je ? wink

proverbe chinois : si tu te lêves le matin et que le soleil est bleu , c'est que tu habites pas loin de l'usine a pneus
E A D G B E
=============
C |0 3 2 0 1 0|
D |0 0 0 3 2 3|
Dsus2 |0 0 0 3 2 0|
Em |0 2 2 0 0 0|
G |3 2 0 0 0 3|


C
J'ai un rêve
D
Le rêve que j'ai
G
Tout l' monde le fait
C
Je rêve d'eau
D
Mais d'océan
G
Ah ! l'océan
C D Em
Au sud et vivre de pêche
C G D
Mais les rêves on les empêche

C
Jeter dans l'eau
D
Jeter des filets
G
Jeter des filets dans l'eau
C
Un bateau
D
Être heureux dessus
G
Être heureux sur un bateau
C
Je rêve d'eau
D
Mais d'océan
G
Ah! l'océan
C D G
Pêcher des poissons dedans

REFRAIN :

C D G
Pêche_____r pêcher
C G
Ici c'est faire des péchés
C D
Avoir le coeur empêché
G
Faire mal
C D G
Pêche_____r là-bas
C G
Ce n'est que pêcher
C D G
Le vent les poissons moqueurs
D Dsus2 G
Donnent bon cœur

C D G
Poupoupoupoupoupoupou
C D G
Poupoupoupoupoupoupou
D G
Pêcheur
C D G
Poupoupoupoupoupoupou
C D G
Poupoupoupoupoupoupou
D G
Pêcheur

C
Sous la lune
D
Et les étoiles
G
Pêcher en bateau à voiles
C
Rentrer le matin
D
Soleil levant
G
Ah ! oui le vent
C D G
Pêcher des baisers dedans

REFRAIN

C D
Rêver d'être meilleur aussi
G D
Oh ! meilleur !
G C
Dans la vie qui se dépêche
C D
Rêver d'être ailleurs qu'ici
G D
Être ailleurs
G C
Vivre simplement de pêche
G C D
Mais les rêves on les empêche


C
De l'eau fraîche
D
Vivre d'amour
G
Vivre d'amour et d'eau fraîche
C
Je rêve d'eau
D
Mais d'océan
G
Ah ! l'océan
C D G
Vivre la vie autrement

REFRAIN

C D G
Poupoupoupoupoupoupou
C D G
Poupoupoupoupoupoupou
D G
Pêcheur
C D G
Poupoupoupoupoupoupou
C D G
Poupoupoupoupoupoupou
D G
Pêcheur




Cette Tablature a été trouvée sur le plus gros site communautaire de musiciens (80 000 Tablatures): Http://www.Partoch.com

Je viens d'en deposer une autre version sur le site( trouvee sur ABC), a savoir :

Tablature fournie par : (Gontran60)- Version imprimable - Fermer cette fenètre
Important : Veuillez noter que la tablature ci dessous représente le fruit du travail de son auteur et ne peut en aucun cas faire l'objet d'une quelconque utilisation commerciale.
Le reve du pecheur (2) interprété par Laurent Voulzy Difficulté: Niveau 3/5 - Type: Tout

Pour l'intro et les couplets (plus les "poupoupou")
Faire une une petite pompe genre bossa en jouant avec la corde de "B"


Gadd11 C/E D7/F#
e --------------------- -------------------------------- ------
B --------------0h3---- --1po0-1--0-1-0-1--0-1po0-1--1po0 --1po0
G ----------0h2-------- --0----0--0-0-0-0--0-0----0--0--- --2---
D --------0------------ --0----0--0-0-0-0--0-0----0--2---...--0---...etc
A --------------------- -------------------------------- ------
E --0h2-3-------------- --3----3----3---3----3----3--0--- --2---


Accords :

Gadd11 - 32001x G - 320033
C/E - 03201x D/F# - 20023x
D7/F# - 20021x Em - 022000
F - 133211 D - xx0232
C - x32010 D/A - x0023x


Intro :

Gadd11 – C/E – D7/F#
Gadd11 – C/E – D7/F# - Gadd11


C/E
J'ai un rêve
D7/F#
Le rêve que j'ai
Gadd11
Tout l' monde le fait
C/E
Je rêve d'eau
D7/F#
Mais d'océan
C/E
Ah ! l'océan
D7/F# C/E
Au sud et vivre de pêche
F C Gadd11
Mais les rêves on les empêche


Jeter dans l'eau
Jeter des filets
Jeter des filets dans l'eau
Un bateau
Être heureux dessus
Être sur un bateau
Je rêve d'eau
Mais d'océan
Ah! l'océan
D7/F# Gadd11
Pêcher des poissons dedans


Refrain :

G D/F# G
Pêcher...er! pêcher
C G
Ici c'est faire des péchés
C D/F#
Avoir le cœur empêché
G
Faire mal
G D/F# G
Pêcher...er là-bas
C
Ce n'est que pêcher
Em D/F# G
Le vent les poissons moqueurs
D D/A G
Donnent bon cœur

C/E
Poupoupoupoupoupoupou
D7/F#
Poupoupoupoupoupoupou
Gadd11
Pêcheur

Poupoupoupoupoupoupou
Poupoupoupoupoupoupou
Pêcheur


Sous la lune
Et les étoiles
Pêcher en bateau à voiles
Rentrer le matin
Soleil levant
Ah ! oui le vent
D/F# Gadd11
Pêcher des baisers dedans


{Refrain}


Pont :

Em D Em
Rêver d'être meilleur aussi
D Em
Oh ! meilleur !
D C D
Dans la vie qui se dépêche
Em D Em
Rêver d'être ailleurs qu'ici
D Em
Être ailleurs !
D C
Vivre simplement de pêche
F C Gadd11
Mais les rêves on les empêche


De l'eau fraîche
Vivre d'amour
Vivre d'amour et d'eau fraîche
Je rêve d'eau
Mais d'océan
Ah ! l'océan
D7/F# Gadd11
Vivre la vie autrement


{Refrain}


Poupoupoupoupoupoupou
Poupoupoupoupoupoupou
Pêcheur
Poupoupou poupoupoupou
Poupoupoupoupoupoupou
Pêcheur


Un morceau bien sympa ma foi ,allez bonne gratte à tous !!!!

Cached since : 2004-06-27 01:10:51

En ce qui concerne MAxime:


Tablature fournie par : (abctabs)- Version imprimable - Fermer cette fenètre
Important : Veuillez noter que la tablature ci dessous représente le fruit du travail de son auteur et ne peut en aucun cas faire l'objet d'une quelconque utilisation commerciale.
Bille de verre interprété par Maxime Le Forestier Difficulté: Niveau 0/5 - Type: Tab.

BILLE DE VERRE - Maxime Le forestier / Michel Rivard


Accordage : E A D G B E Signature Rythmique: 4/4

| | | | | | | |
|------0---2-----------0---2-----|------0---2-----------0---2-----|
|----3-------3-------3---------3-|----3-------3-------3---------3-|
|--2-----------2---0---------0---|--2-----------2---0---------0---|
|0-------------------------------|0-------------------------------|
|----------------2---------------|----------------2---------------|
|--------------------------------|--------------------------------|

| | | | | | | |
|------0---2-----------0---2-----|------0---2-----------0---2-----|
|----3-------3-------3---------3-|----3-------3-------3---------3-|
|--2-----------2---0---------0---|--2-----------2---0---------0---|
|0-------------------------------|0-------------------------------|
|----------------2---------------|----------------2---------------|
|--------------------------------|--------------------------------|

| | | | | | | |
|------0---2-----------0---2-----|----------0---------------0-----|
|----3-------3-------3---------3-|----0-3-----0---------3-------3-|
|--2-----------2---0---------0---|--0-----------0-----0-------0---|
|0-------------------------------|0-----------------2-------------|
|----------------2---------------|----------------0---------------|
|--------------------------------|--------------------------------|

| | | | | |
|------0---2-----------0---2-----|------0---5-----|
|----3-------3-------3---------3-|----3---------3-|
|--2-----------2---0---------0---|--2---------2---|
|0-------------------------------|0---------------|
|----------------2---------------|----------------|
|--------------------------------|----------------|

| | | | | | | |
|3b--------------3b--------------|------0---2---------------0-----|
|3b--------------3b--------------|----3-------3---------3---------|
|5b--------------3b--------------|--2-----------2-----0-------0---|
|5b--------------5b--------------|0-----------------2-----------2-|
|----------------5b--------------|----------------0---------------|
|----------------3b--------------|--------------------------------|

| | | | | | | |
|------0---2-----------0---2-----|------0---2---------------0-----|
|----3-------3-------3-------3---|----3-------3---------3---------|
|--2-----------2---0-----------2-|--2-----------2-----0-------0---|
|0-------------------------------|0-----------------2-----------2-|
|----------------3---------------|----------------0---------------|
|--------------------------------|--------------------------------|

| | | | | | | |
|------0---2-----------0---2-----|------0---2-----------0---2-----|
|----3-------3-------3-------3---|----3-------3-------3---------3-|
|--2-----------2---0-----------2-|--2-----------2---0---------0---|
|0-------------------------------|0-------------------------------|
|----------------3---------------|----------------2---------------|
|--------------------------------|--------------------------------|

| | | | | | | |
|--------------------------------|--------------------------------|
|----3-2---0-----0---0-3---------|----------------0---0-----------|
|--0---------2---0---0-2---------|2-------0-------0---0-2---------|
|2---------------0---0-4---------|2-------2-------0---0-4---2-0---|
|0---------------2---2-2---2-0---|3-------3---2-0-------5---------|
|--------------------------------|--------------------------------|

| | | | | |
|--------------------------------|----------------|
|----3-2---0-----0---0-3---------|----------------|
|--0---------2---0---0-2---------|2---2-0---------|
|2---------------0---0-4---------|2---2-2---------|
|0---------------2---2-2---2-0---|3---3-3---2-0---|
|--------------------------------|----------------|

| | | | | | | |
|--------------------------------|------0---2---------------0-----|
|1-------1-----------------------|----3-------3---------3---------|
|0-------0---3-------------------|--2-----------2-----0-------0---|
|0-------0---5-------------------|0-----------------2-----------2-|
|3-------3---5-------------------|----------------0---------------|
|--------------------------------|--------------------------------|

| | | | | | | |
|------0---2-----------0---2-----|------0---2---------------0-----|
|----3-------3-------3-------3---|----3-------3---------3---------|
|--2-----------2---0-----------2-|--2-----------2-----0-------0---|
|0-------------------------------|0-----------------2-----------2-|
|----------------3---------------|----------------0---------------|
|--------------------------------|--------------------------------|

| | | | | | | |
|------0---2-----------0---2-----|------0---2-----------0---2-----|
|----3-------3-------3-------3---|----3-------3-------3-------3---|
|--2-----------2---0-----------2-|--2-----------2---0-----------2-|
|0-------------------------------|0-------------------------------|
|----------------2---------------|----------------2---------------|
|--------------------------------|--------------------------------|

| | | | | | | |
|------0---2-----------0---2-----|------0---2-----------0---2-----|
|----3-------3-------3-------3---|----3-------3-------3-------3---|
|--2-----------2---0-----------2-|--2-----------2---0-----------2-|
|0-------------------------------|0-------------------------------|
|----------------2---------------|----------------2---------------|
|--------------------------------|--------------------------------|

| | | | | | | |
|------0---2-----------0---2-----|------0---2-----------0---2-----|
|----3-------3-------3-------3---|----3-------3-------3-------3---|
|--2-----------2---0-----------2-|--2-----------2---0-----------2-|
|0-------------------------------|0-------------------------------|
|----------------2---------------|----------------2---------------|
|--------------------------------|--------------------------------|

| | | | | | | |
|------0---2-----------0---2-----|--------0---2-------------------|
|----3-------3-------3-------3---|------------3-------------------|
|--2-----------2---0-----------2-|----2-------2-------------------|
|0-------------------------------|0-----------0-------------------|
|----------------2---------------|--------------------------------|
|--------------------------------|--------------------------------|





Cached since : 2004-06-26 23:50:09


Pilier de Forum
1492 messages
super méga merci hand87 bump love love love love love cela faisait un moment que je cherchais ces partoches et je commencais a deseperer donc grand grand merci et vive la solidarité entre les musciens

proverbe chinois : si tu te lêves le matin et que le soleil est bleu , c'est que tu habites pas loin de l'usine a pneus
Je vois que j'arrive un peu tard, mais j'ai déposé une version de "Bille de verre" de Michel Rivard. Jettes-y un petit coup d'oeil.
Allez bonne gratte!!! smiley-guitar smiley-guitar smiley-guitar

Jamais trop tard pour bien faire :)

BRAVO JAPPLAUDIE LA SOLIDARITé MUSICIENNE maitre
c des gens come ca que lon en a plus!!!






>> Plan du Forum Tablatures | suivi de la discussion | Tags : tablature, leforestier, voulzy, laurent, pecheur, cherche, partoche, fait, moment

+