cherche tab de face a la mer de calo


nouveau message Répondre
Recherche

#
souplait!!! face a la mer de calogero



#
y a qq un? micro

#
Je vais rien t'indiquer de grandiose, à part ce que je peux deviner à l'oreille:

(intro)

E---3----3--4--1-----1--3------
A-----4-------------1-------4--3 (fois2)
G---------------------------------
D---------------------------------
A---------------------------------
E----------------------------------

(Mélodie refrain)

E--3---3--4--1------1--3----- (fois2)
A------------------1-------4--3
G-------------------------------
D-------------------------------
A-------------------------------
E--------------------------------

suivi de :

E--3---3--4--1------1--3-------------------1--3
A------------------1-------4--3--4-------1-------4--3--4----3----6----4---3--4
G------------------------------------------------------------------------------------
D------------------------------------------------------------------------------------
A------------------------------------------------------------------------------------
E-------------------------------------------------------------------------------------

Voilà ce que j'en pense!

Post édité le 09/09/2004 10:05:58 par webmaster


Post édité le 09/09/2004 10:07:22 par webmaster


#
Je suis désolé, y a eu un p'tit décalage...

#
il est dans lers tabs des débutants je crois... Enfin sur qu'il est sur ce site ! Bonne recherche... chanteur


nouveau message Répondre Recherche


Répondre à cette discussion >>

plan Plan du Forum Tablatures||Tags : face, mer, souplait, tab, calogero, cherche, calo