Lecture de tab

close
FILTRES DE LA RECHERCHE

Salut à tous,

J'ai un petit problème sur le début de la lecture d'une tab, il y a marqué au début "actually in F#"... Je comprends pas vraiment ce que ça veut dire... sad

Merci d'avance.

c'est koi comme tab

faut croire que ce passage est en fa dièse...

pascal17

God of Partoch
Petit tabber
Petit Downloader
11 photos
13146 messages
Modérateur
je ne comprends pas trop non plus...
peut etre un morceau qui a ete transposé en Fa#...

ou alors une histoire de capodastre tu joue un mi avec un capo en 2eme case,
et t'as actually Fa#...
???? mais c'est que des hypotheses...
montre nous la tab

LUKA (Suzanne Vega)
-------------------
[Actually in F#; capo at the 2nd fret.]
[E: 022100 Bsus4: x24400 Asus2: x02200 C#m7: x46600]



E Bsus4 Asus2 Bsus4
[intro; just one guitar]
C#m7 Bsus4 C#m7 Bsus4 Asus2 Bsus4 Asus2 Bsus4
[intro; whole band comes in]

E Bsus4
My ..
Asus2 Bsus4
I ...
E Bsus4
I ..
Asus9 Bsus4
Yes ..
C#m7 Bsus4 C#m7
If ..
Bsus4 Asus2
Some ..
Bsus4
Just ..
Asus2 Bsus4
Just ..
Asus2 Bsus4
Just ..

verse 2

E Bsus4 Asus2 Bsus4 E Bsus4 Asus2 Bsus4
[guitar solo]

verse 3
verse 4

E Bsus4 Asus2 Bsus4 E Bsus4 Asus2 Bsus4 C#m7 Bsus4 Asus2 Bsus4 E.
[instrumental]



INTRO TAB:

[The rest of the song follows the same pattern.]

E Bsus4 Asus2 Bsus4
E ----------------|--------0-------|--------0-------|--------0-------|
B ----------------|----0-----0-----|----0-----0-----|----0-----0-----|
G ----1-----1-----|----4-----------|2---------------|----4-----------|
D ----2-----2-----|----4-----------|----2-----------|----4-----------|
A ----2-----2-----|--2-------------|0---------------|--2-------------|
E 0---------------|----------------|----------------|----------------|
^ . ^ . ^ . ^ . ^ . ^ . ^ . ^ . ^ . ^ . ^ . ^ . ^ . ^ . ^ . ^ .

C#m7 Bsus4 C#m7 Bsus4
E ----0-------0---|----0-------0---|----0-------0---|----0-------0---|
B 0-----0-------0-|--0---0---0---0-|0-----0-------0-|--0---0---0---0-|
G ----------------|--4-------4-----|----------------|--4-------4-----|
D --6-------6-----|--4-------4-----|--6-------6-----|--4-------4-----|
A 4-------4-------|2-------2-------|4-------4-------|2-------2-------|
E ----------------|----------------|----------------|----------------|
^ . ^ . ^ . ^ . ^ . ^ . ^ . ^ . ^ . ^ . ^ . ^ . ^ . ^ . ^ . ^ .

Asus2 Bsus4 Asus2 Bsus4
E ------------0---|----0-------0---|------------0---|-----0-------0---|
B ----0-----0---0-|--0---0---0---0-|----0-----0---0-|---0---0---0---0-|
G ----2-----2-----|--4-------4-----|----2-----2-----|---4-------4-----|
D ----2-----2-----|--4-------4-----|----2-----2-----|---4-------4-----|
A 0---------------|2-------2-------|0---------------|-2-------2-------|
E ----------------|----------------|----------------|-----------------|
^ . ^ . ^ . ^ . ^ . ^ . ^ . ^ . ^ . ^ . ^ . ^ . ^ . ^ . ^ . ^ .

Voilà la tab... Merci de vos réponse wink.

magiclem007

God of Partoch
4 photos
10951 messages
tu met un capo case 2 pour avoir l'accordage en fa#

et apres tu joue comme c'est ecrit

Ok, j'avais cru qu'il fallait faire autre chose en plus de mettre le capo smyleybleu ...

Merci wink.

quentin-skate

God of Partoch
1 photo
7827 messages
adrienovich a écrit :
faut croire que ce passage est en fa dièse...

je ne suis pas bon en solfège, normal je n'en ai jamais fait, mais je suis de l'avi a adrienovich




>> Plan du Forum Débutants | suivi de la discussion | Tags : but, tab, lecture, avance, merci, dire, veut, vraiment, comprends



+