Mario a la basse


nouveau message Répondre
Recherche

_maximus_

Artiste en devenir
Jeune tabber
465 messages
#
Salut salut, est-ce que quelqu'un a la tablature de mario bros ????


merci d'avance. wink

flobass

God of Partoch
Mega Tabber
3 photos
3491 messages
#
J'ai la tab.

Skyblog de mon groupe : http://morgatory.skyblog.com/
flobass

God of Partoch
Mega Tabber
3 photos
3491 messages
#
Voici la tab (désolé si j'ai pas la droit de la poster et je m'en excuse).

E E E E E E E E E E E E E E E E
G||------------1-----2--------|-----------1-----0--------|
D||*--------3-----------3-----|--------3-----------------|
A||*-----3-----------------3--|-----3--------------3-----|
E||---1-----------------------|--1--------------------3--|


E E E E E E E E E E E E E E E E
-----------------1--------|-----------------1--------|
--------3-----------3-----|--------3-----------3-----|
-----3-----3-----------3--|-----3-----3-----------3--|
--1-----------------------|--1-----------------------|


E E E E E E E E E E E E E E E E
-----------------1--------|-----------------1--------|
--------3-----------3-----|--------3-----------3-----|
-----3-----3-----------3--|-----3-----3-----------3--|
--1-----------------------|--1-----------------------|


E E E E E E E E E E E E E E E E
-----------1-----2--------|-----------1-----0--------|
--------3-----------3-----|--------3-----------------|
-----3-----------------3--|-----3--------------3-----|
--1-----------------------|--1--------------------3--|


E E E E E E E E E E E E E E E E
-----------------1--------|-----------------1--------|
--------3-----------3-----|--------3-----------3-----|
-----3-----3-----------3--|-----3-----3-----------3--|
--1-----------------------|--1-----------------------|


E E E E E E E E E E E E E E E E
-----------------1--------|-----------------1--------|
--------3-----------3-----|--------3-----------3-----|
-----3-----3-----------3--|-----3-----3-----------3--|
--1-----------------------|--1-----------------------|


E E E E E E E E E E E E E E E E
-----------1-----2--------|-----------1-----0--------|
--------3-----------3-----|--------3-----------------|
-----3-----------------3--|-----3--------------3-----|
--1-----------------------|--1--------------------3--|


E E E E E E E E E E E E E E E E
-----------------1--------|-----------------1--------|
--------3-----------3-----|--------3-----------3-----|
-----3-----3-----------3--|-----3-----3-----------3--|
--1-----------------------|--1-----------------------|


E E E E E E E E E E E E E E E E
-----------------1--------|-----------------1--------|
--------3-----------3-----|--------3-----------3-----|
-----3-----3-----------3--|-----3-----3-----------3--|
--1-----------------------|--1-----------------------|


E E E E E E E E E E E E E E E E
-----------1-----2--------|-----------1-----0--------|
--------3-----------3-----|--------3-----------------|
-----3-----------------3--|-----3--------------3-----|
--1-----------------------|--1--------------------3--|


E E E E E E E E E E E E E E E E
-----------------1--------|-----------------1--------|
--------3-----------3-----|--------3-----------3-----|
-----3-----3-----------3--|-----3-----3-----------3--|
--1-----------------------|--1-----------------------|


E E E E E E E E E E E E E E E E
-----------------1--------|-----------------1--------|
--------3-----------3-----|--------3-----------3-----|
-----3-----3-----------3--|-----3-----3-----------3--|
--1-----------------------|--1-----------------------|


E E E E E E E E E E E E E E E E
-----------1-----2--------|-----------1-----0--------|
--------3-----------3-----|--------3-----------------|
-----3-----------------3--|-----3--------------3-----|
--1-----------------------|--1--------------------3--|


E E E E E E E E E E E E E E E E
-----------------1--------|-----------------1--------|
--------3-----------3-----|--------3-----------3-----|
-----3-----3-----------3--|-----3-----3-----------3--|
--1-----------------------|--1-----------------------|


E E E E E E E E E E E E E E E E 10x
-----------------1--------|-----------------1---------||-----||
--------3-----------3-----|--------3-----------3-----*||-----||
-----3-----3-----------3--|-----3-----3-----------3--*||-----||
--1-----------------------|--1------------------------||-----||


Skyblog de mon groupe : http://morgatory.skyblog.com/
_maximus_

Artiste en devenir
Jeune tabber
465 messages
#
merci maitre

flobass

God of Partoch
Mega Tabber
3 photos
3491 messages
#
_maximus_
_maximus_ a écrit :
merci maitre


A ton service, besoin d'autres tabs ?

Skyblog de mon groupe : http://morgatory.skyblog.com/
_maximus_

Artiste en devenir
Jeune tabber
465 messages
#
non c'est bon ^^
( jvais poser une tab parfaitement juste de nothing else matters , alors au boulot ^^ )

flobass

God of Partoch
Mega Tabber
3 photos
3491 messages
#
_maximus_
_maximus_ a écrit :
non c'est bon ^^
( jvais poser une tab parfaitement juste de nothing else matters , alors au boulot ^^ )


D'accord.
A+

Skyblog de mon groupe : http://morgatory.skyblog.com/
_maximus_

Artiste en devenir
Jeune tabber
465 messages
#
j'écris la moitier de la tab quand je regarde ce que les gens on mis, et la, miliouz a la bonne tab ( la meme que moi plutot ) j'ai tapper pour rien...

#
Miliouz c'est logique


toutes les tablatures de lui que j ai apprises étaient nickel


nouveau message Répondre Recherche


Répondre à cette discussion >>

plan Plan du Forum Basse||Tags : mario, -ce, basse, quelqu, tablature, avance, merci, bros