Accueil > > Forums > Forum Tablatures > Je recherche de l'aide pour compléter (corriger) cette tab des Rakes.

Je recherche de l'aide pour compléter (corriger) cette tab des Rakes.


nouveau message Répondre
Recherche

#
Chuis un gros fan des Rakes, et il y a une chanson que j'aime bien , qui est "22 ground job". Pour ceux qui connaissent, je recherche la partie guitare du morceau ( la batterie et la basse c'est pas dur à trouver faut dire :P). J'ai un petit début de tab à proposer, mais si une âme bienveillante pouvait l'améliorer^^:

-------------------------
-------------------------
------------9-11---------
-----7-9-11--------------
-7-9---------------------
-------------------------

Si possible, moins dure, le doigté est dur dur xD.



#
euh moi je jou comme sa

---------------------------------------------------------------------
---------------------------------------------------------------------
---------------------------------------------------------------------
----------9---11---9---------------9---11----------------------------
--9---12--------------12---9---12------------------------------------
---------------------------------------------------------------------

les rakes ça dechire


nouveau message Répondre Recherche


Répondre à cette discussion >>

plan Plan du Forum Tablatures||Tags : dur, recherche, rakes, des, tab, job, ceux, connaissent, guitare