astorias


nouveau message Répondre
Recherche

#
salut a tous
je cherche la tablature d'un classic: "astorias" de isaac albeniz
ca s'rais simpa de m'lenvoyer ou me dire ou je peux la trouver
merci d'avance

#
c'est pas plutot asturias?

sa ?


E||-----------------------------|----------------------------|
B||-----0---0----0---0---0----0-|----0---0----0---0---0----0-|
G||*----------------------------|----------------------------|
D||*------9---10---7---9--------|------9---10---7---9--------|
A||---7--------------------10---|--7--------------------10---|
E||-----------------------------|----------------------------|



----------------------------|----------------------------|
----0---0----0---0---0----0-|----0---0----0---0---0----0-|
----------------------------|----------------------------|
------9---10---7---9--------|--7------------7------------|
--7--------------------10---|------9---10-------9---10---|
----------------------------|----------------------------|

Non???

#
c'est bien ca,merci a toi snoblik

#
De rien je mets la tablature complete sur le site !

#
asturias ou leyenda d'isaak albeniz maitre maitre maitre
bon courrage...cho cho cho bouillant seront tes doigts à la fin du morceau...si tu arrives à la fin. icon_cheesygrin


nouveau message Répondre Recherche


Répondre à cette discussion >>

plan Plan du Forum Tablatures||Tags : astorias, albeniz, isaac, classic, cherche, tablature, rais, simpa, merci