iron maiden tabs.........


nouveau message Répondre
Recherche

#
bump qui c'est qui connai le groupe iron maiden maitre love smiley-guitar micro ........................ icon_cheesygrin
bref qui c'est qui connais iron maiden smiley-guitar maitre love ......???????..........
allerz chercher de tablatures plus ou moins simple d'eux

#
je connai tres bien le groupe jador meme surtout futureal le son est énorme le solo aussi mais c avis aux guitariste aguéri lol!! tchut et vive le odl rock (hendrix,knophler,acdc,zz top,led zep,van halen........)

#
jen nai une des tablature dance of the dead ( petit bouts )
x2
-----------------------/---------------------/------------------------/-.--------------------
-------o--------0------/------3------3-------/-------2------2---------/-.--------------------------
-----------------------/---------------------/------------------------/-.----0------0----------
-----2--------2------2-/----4-----4-----4----/----0------0------0-----/-.-----------------------------
-----------------------/---------------------/------------------------/-.--3-----3------3-------
-----------------------/---------------------/------------------------/-.--------------------

ce n'est que un petit bout désoler mais c'est deja sa wink

#


E|---------------------------------|----------------------------------------|
B|---------------------------------|----------------------------------------|
G|-7-----7-7-9-9-10-10-9-9-7-7-9-9-|--5-------5-5--7-7--9-9--7-7--5-5--9--5-|
D|---7-7---------------------------|-----5-5--------------------------------|
A|---------------------------------|----------------------------------------|
E|---------------------------------|----------------------------------------| X2

E|----------------------------------|---------------------------------|
B|----------------------------------|---------------------------------|
G|----------------------------------|---------------------------------|
D|-7-7----7-7-9-9-10-10-9-9-7-7-9-9-|-5-5-----5-5-7-7-9-9-7-7-5-5-9-5-|
A|----7-7---------------------------|-----5-5-------------------------|
E|----------------------------------|---------------------------------|

E|---------------------------------|-------------------------------|
B|---------------------------------|-------------------------------|
G|---------------------------------|-------------------------------|
D|-7-7---7-7-9-9-10-10-9-9-7-7-9-9-|-3-3---3-3-5-5-7-7-5-5-3-3-7-3-|
A|----7-7--------------------------|----3-3------------------------|
E|---------------------------------|-------------------------------|

Moi ce nest que le début de Fear of the dark.

1 membre aime ça


nouveau message Répondre Recherche


Répondre à cette discussion >>

plan Plan du Forum Tablatures||Tags : iron, maiden, bref, groupe, connai, tabs, connais, allerz, simple