The pilgrimm


nouveau message Répondre
Recherche

#
Bonjour,
Quelqu'un peut t'il me donner le petit riff d'intro de Maiden du dernier album, "the pilgrimm" ??
Merci d'avance

bejustorbedead

Jeune tabber
#
e|-7-7-------------|-----------------7~|-7---------------|-7-7-------------|
B|-----10-8-7----|-10-10-8-10----|---10-8-7------|-----10-8-7-----|
G|--------------9~|---------------------|--------------9~|--------------9~|
D|------------------|---------------------|------------------|------------------|
A|------------------|---------------------|------------------|------------------|
E|------------------|---------------------|------------------|------------------|


e|-------------------|
B|-10-10-8-7-----|
G|---------------9--|
D|-------------------|
A|-------------------|
E|-------------------|

Deux fois puis:
e|---------------|
B|-8-7----------|
G|-----9-7--9~|
D|---------------|
A|---------------|
E|---------------|
Après l'autre morceau de la chanson commence. Les vagues sont pour les effets de vibrato. chanteur chanteur chanteur

#
Sympa merci beaucoup de ton aide. n'hésite pas si tu as des demandes que j'essaierai de satisfaire


nouveau message Répondre Recherche


Répondre à cette discussion >>

plan Plan du Forum Tablatures||Tags : pilgrimm, petit, donner, quelqu, bonjour, riff, intro, avance, merci