quelque petit compo simpas


nouveau message Répondre
Recherche

#
N1
e---------------------------------
-----------------------------------
------------------------------------
-----------------------------------
------12-12-12-12-12-12-12-9-9-9--8-8-8
E---10--10-10-10-10-10-10--7-7-7--6-6-6

N2
e----------------------------------------------------------------------------------------------------------------
B---------------------------------------------------------------------------------------------------------------
G----------------------------------------------------------------------------------------------
D-----7-7-7-7-7-7-7--4-4-4-4-4-4-4--7-7-7-7-7-7-7--4-4-4-4-4-4-4--7-7-7--5-5-5--4-4-4
A-----7-7-7-7-7-7-7--4-4-4-4-4-4-4--7-7-7-7-7-7-7--4-4-4-4-4-4-4--7-7-7--5-5-5--4-4-4
E-----5-5-5-5-5-5-5--2-2-2-2-2-2-2--5-5-5-5-5-5-5--2-2-2-2-2-2-2--5-5-5--3-3-3--2-2-2

N3
e---2-2-2--5-4-3--2-2-2--3-5--
----2-2-2--5-4-3--2-2-2--3-5--
-------------------------------
--------------------------------
-------------------------------
E-----------------------------


N4
e----------------------
---------------------------------------
------------------------------
-----5-5-5-5--7-5--3-3-3-3--1--3--3
-----------------------------------
E------------------------------------

#
Ben si la question c'est "qu'est ce que vous en pensez ? " ben pas grand chose, une paire de power chords et pis c'est tout...

Y a une question hum ???

Qu'est-ce que t'attend de nous?

#
C'est vrai que pour sortir ça faut pas reflechier longtemps lol je vois pas l'interet de faire un topic avec ca mdr.
Si il faut donner un avis pour ma part je trouve ça plutot bof comme l'a dit new.glad c'est juste quelques powerchords a la suite...

#
Gloups ...
Et ?

#
Y sont méchants hammer

Certes c'est pas bien compliqué mais c'est pas pour ca que c'est forcément mauvais, j vient d'essayer et j'trouve ca sympa pour un début. Mais il est vrai que ca présente peut d'interet pour nous. icon_redface

En fait je vient de percuter que c'etait à chaque foi quelquechose de différent, donc c'est vraiment tres leger. Si tu veut un avis, ben je te dirais de contunuer sur ta lancé pour faire quelquechose de complet.

#
ok merci "vitramus" enféte j'ai poster se topic pour les débutant qui cherche des petit truc a jouer simpas

#
ya deja un topic sur sa icon_redface

"quelques morceaux pour debuter" icon_cheesygrin

#
Pas tres orginal, ya pas assez de fantaisie je trouve...

#
bon je vien d'essayer je trouve que bof bof niveau enchainement y a beaucoup plus zoli

#
Oui, c'est très simple, c'est comme si je proposais une suite de 3 accords,
ça n'a rien d'extraordinaire quoi, n'importe quel apprenti guitariste en est capable.


nouveau message Répondre Recherche


Répondre à cette discussion >>

plan Plan du Forum Débutants||Tags : -----, e---, d-----, a-----, e-----, quelque, simpas, petit, compo