tablature supermassive black hole


nouveau message Répondre
Recherche

liney

Artiste motivé
208 messages
#
je suis débutante et malgrès tou ce que j'ai pu lire sur les bend pull off hammer et autre truc je n'ai jaimais vraiment compris es-ceque quelqu'un pourait m'expliquer comment jouer ca maitre :
------------------------------------
------------------------------------
-----b2-(3)-2-h0-2p0----------------
------------------------------2-----
------------------------------------
------------------------------------

c'est une tab qui vien d'un magazine et audessus du 3 ils ont mis un "r" je sais meme pas ce que ca signifie
merci a tous ceux qui pouran me délivrer de mon ignorance icon_cheesygrin

#
ben déja ta tablature est bourrait de faute

2h0 ca va pas ca t'aura du mal a faire un hammer dans ce sens ( correction : 2p0 )

liney

Artiste motivé
208 messages
#
a bah désoler moi j'y comprend rien j'ai simplement recopier sur ma tab y a le 0 et audessus un h donc bon. et fautes ou pas j'ai toujour pas compris comment fallait y jouer comment jouer le 3 et comment jouer le 2p0 j'arrive pas a comprendre

#
le 2p0 en fait tu joue le 2 normal tu frete en 2 en jouant la corde et apres tu lache brusquement ton doight de la frete 2 sans jouer la corde et voila ta fait un pull off de 2->0

le (3) veut dire que c'est une note atténuée pour cela tu reduit ton attaque lorsque tu joue ta corde en frettant la case 3

liney

Artiste motivé
208 messages
#
et ben voila merci beucoups maitre maitre maitre
derniere petite question (enfin j'espere) c'est pour jouer le h0 je crois que le hammer c'est le coup de marteau sur une frette comment je fait pour frapper une frette qui existe pas ?

#
2h0 c'est infaisable ^^ c'est obligatoire un pull off
mais sinon un hammer oui c'est "marteau"
exemple : 5h7 tu joue normal en frettant en 5 puis tu vient taper avec un autre doight en 7 sans jouer la corde

liney

Artiste motivé
208 messages
#
bon apres j'arrete mais t'explique bien alors je vais en profiter
en pul off quand t a 3p2 par exemple tu joue la corde en 3 et ensuite tu pose un doigt en 2 et tu enleve rapidement ton doigt en 3 ?
(franchement je dois passer pour une co*** smyleybleu

#
c'est tout a fait ca

mais na tu débute ... faut bien que on t'explique puis c'est bon

liney

Artiste motivé
208 messages
#
me coucherai moins bete ce soir merci beucoups maitre maitre maitre

#
de rien ^^ bonne gratte smiley-guitar smiley-guitar

ozeane

1 message
#
salut je suis assez nul en solfege et j'ai la tablature de supermassive black hole et je comprends rien du tout wink donc si quelqu'un pouvez me la traduire et la mettre en accord français (sol, la ...) ca serai super simpa et me lenvoyer sur mon adresse ocecloarec@live.fr.
merci
Intro
E|---------------------------|
A|---------------------------|
D|---------------------------| x4
G|---------------------------| (listen to song for rhythm)
B|-7-10b-7--7-7-7-10-7-------|
E|---------------------------|

E|----------------|
A|----------------|
D|-3-2-0h2p0------|
G|-----------2----|
B|----------------|
E|----------------|

E|-------------------------------------|
A|-------------------------------------|
D|-------------------------------------|
G|-----10?-----5-5-5-----10?-----7-7-5-|
B|-----10?-----5-5-5-----10?-----7-7-5-|
E|-0-0-10?-0-0-3-3-3-0-0-10?-0-0-5-5-3-|

E|-------------------------------------|
A|-------------------------------------|
D|-------------------------------------|
G|-----10?-----5-5-5-----10?-----7-7-9-|
B|-----10?-----5-5-5-----10?-----7-7-9-|
E|-0-0-10?-0-0-3-3-3-0-0-10?-0-0-5-5-7-|


E|-------------------------------------|
A|-------------------------------------|
D|-------------------------------------|
G|-----10?-----5-5-5-----10?-----7-7-5-|
B|-----10?-----5-5-5-----10?-----7-7-5-|
E|-0-0-10?-0-0-3-3-3-0-0-10?-0-0-5-5-3-|


E|---------------------------|----------------|
A|---------------------------|----------------|
D|---------------------------|-3-2-0h2p0------|
G|-----10?-----5-5-5-----10?-|-----------2----|
B|-----10?-----5-5-5-----10?-|----------------|
E|-0-0-10?-0-0-3-3-3-0-0-10?-|----------------|

Verse 1


E|-------------------------------------|
A|-------------------------------------|
D|-------------------------------------|
G|-----10?-----5-5-5-----10?-----7-7-5-|
B|-----10?-----5-5-5-----10?-----7-7-5-|
E|-0-0-10?-0-0-3-3-3-0-0-10?-0-0-5-5-3-|


E|-------------------------------------|
A|-------------------------------------|
D|-------------------------------------|
G|-----10?-----5-5-5-----10?-----7-7-9-|
B|-----10?-----5-5-5-----10?-----7-7-9-|
E|-0-0-10?-0-0-3-3-3-0-0-10?-0-0-5-5-7-|


E|-------------------------------------|
A|-------------------------------------|
D|-------------------------------------|
G|-----10?-----5-5-5-----10?-----7-7-5-|
B|-----10?-----5-5-5-----10?-----7-7-5-|
E|-0-0-10?-0-0-3-3-3-0-0-10?-0-0-5-5-3-|

E|-----------------------------|----------------|
A|-----------------------------|----------------|
D|-----------------------------|-3-2-0h2p0------|
G|-----10?-----5-5-5-----10?---|-----------2----|
B|-----10?-----5-5-5-----10?---|----------------|
E|-0-0-10?-0-0-3-3-3-0-0-10?-0-|----------------|

Chorus

E|-----------------------------------------------------------------|
A|-----------------------------------------------------------------|
D|-----------------------------------------------------------------| x4
G|-----7-----7-7-------5---------------9-----8-7-5-----------------|
B|-7-7---7-7-----6-5-5---5-5-7-7-8-9-9---9-9-------2-2-2-4-4-5-5-6-|
E|-5-5---5-5-----4-3-3---3-3-5-5-6-7-7---7-7-------0-0-0-2-2-3-3-4-|

Verse 2

E|-----|
A|-----|
D|-----| x2
G|--2--|
B|--2--|
E|--0--|

E|-------------------------------------|
A|-------------------------------------|
D|-------------------------------------|
G|-----10?-----5-5-5-----10?-----7-7-5-|
B|-----10?-----5-5-5-----10?-----7-7-5-|
E|-0-0-10?-0-0-3-3-3-0-0-10?-0-0-5-5-3-|

E|-----------------------------|
A|-----------------------------|
D|-----------------------------|
G|-----10?-----5-5-5-----10?---|
B|-----10?-----5-5-5-----10?---|
E|-0-0-10?-0-0-3-3-3-0-0-10?-0-|

Chorus

E|-----------------------------------------------------------------|
A|-----------------------------------------------------------------|
D|-----------------------------------------------------------------| x4
G|-----7-----7-7-------5---------------9-----8-7-5-----------------|
B|-7-7---7-7-----6-5-5---5-5-7-7-8-9-9---9-9-------2-2-2-4-4-5-5-6-|
E|-5-5---5-5-----4-3-3---3-3-5-5-6-7-7---7-7-------0-0-0-2-2-3-3-4-|

Pre-Solo

E|---------------------------|
A|---------------------------|
D|---------------------------| x4
G|---------------------------| (listen to song for rhythm)
B|-7-10b-7--7-7-7-10-7-------|
E|---------------------------|

Solo

E|--------------------------------------------------------------------|
A|---------------------------------------15p14h15p14h15p14h15p14b-15b-|
D|-0/9/15p14h15p14h15p14h15p14h15p14h15b------------------------------|
G|--------------------------------------------------------------------|
B|--------------------------------------------------------------------|
E|--------------------------------------------------------------------|

Chorus

E|-----------------------------------------------------------------|
A|-----------------------------------------------------------------|
D|-----------------------------------------------------------------| x4
G|-----7-----7-7-------5---------------9-----8-7-5-----------------|
B|-7-7---7-7-----6-5-5---5-5-7-7-8-9-9---9-9-------2-2-2-4-4-5-5-6-|
E|-5-5---5-5-----4-3-3---3-3-5-5-6-7-7---7-7-------0-0-0-2-2-3-3-4-|

Outro

Intro
E|---------------------------|
A|---------------------------|
D|---------------------------| x4
G|---------------------------| (listen to song for rhythm)
B|-7-10b-7--7-7-7-10-7-------|
E|---------------------------|

#
un petit HS, mais, tu as vu twilight pour vouloir jouer cette chanson XD?? icon_cheesygrin hammer


nouveau message Répondre Recherche


Répondre à cette discussion >>

plan Plan du Forum Débutants||Tags : tablature, truc, autre, hammer, jaimais, vraiment, quelqu, es-ceque, compris