hey hey

close
FILTRES DE LA RECHERCHE

je cherche une tab de la marseillaise
si vous savez ou trouvez ça
merci
j'ai trouvé des versions guitar pro mais j'ai pas se logiciel
et sur Google ya rien
moi je la veux en entier pour fair ma version

merci , je chercheré la suite a l'oreil ou si y a des gens qui l'on en entier


Artiste très motivé
1 photo
344 messages
"""""version punk""""""""



Allons, enfants de la Patrie, Le jour de gloire est arrivé.
G----------------------------------------------------------------------
D------------2--2---4---4---9--6---2---2--6--2--4--7--4-----------------
A---2--2--2--0--0---2---2---7--4---0---0--4--0--2--5--2--6--7--7--7--7--
E---0--0--0----------------------------------------------4--5--5--5--5--

Contre nous de la tyrannie,l'étendard sanglant est levé!L'étendard sanglant est levé !
G------------------------------------------------------------------------------------
D---------6--6--6--7--6--6--4--4--4--7-7--7--7--9--9--6--6--9-9-9-9--9--9--6--6------
A---7--7--4--4--4--5--4--4--2--2--2--5-5--5--5--7--7--4--4--7-7-7-7--7--7--4--4---2--
E---5--5--------------------------------------------------------------------------0--


Entendez-vous dans les campagnes Mugir ces féroces soldats ?
G--------------------------------------------------------------
D-------------4---4---4---7---7--4---2---2--2--2-------4---4---
A-----2---2---2---2---2---5---5--2---0---0--0--0---2---2---2---
E-----0---0----------------------------------------0-----------


Ils viennent, jusque dans vos bras, Egorger vos fils, vos compagnes !
G------------------------------------------------------------------------
D---4---5---5---5---5---5---5---4---4---4---4---2---2---2---2------------
A---2---3---3---3---3---3---3---2---2---2---2---0---0---0---0----2---2---
E----------------------------------------------------------------0---0---


Aux armes, citoyens ! formez vos bataillons !
G---------------------------------------------------
D-------------------4~~------------------------4~~--
A----2~~------------2~~---------2~~------------2~~--
E----0~~------------------------0~~-----------------

Marchons ! Marchons ! Qu'un sang impur
G-----------------------------------------------
D----2~~-----------6~~-------7----9----11-------
A----0~~-----------4~~-------5----7----9----9---
E-------------------------------------------7---

Abreuve nos sillons.
G--------------------------
D----11--9---6---7--5--2---
A----9---7---4---5--2--0---
E--------------------------


Artiste très motivé
1 photo
344 messages





>> Plan du Forum Tablatures | suivi de la discussion | Tags : hey, merci, trouv, des, trouvez, savez, cherche, tab, marseillaise

+