Solo et pentatonique, votre avis ?

close
FILTRES DE LA RECHERCHE

Je poste ici mais je suis pas sur que ce soit le bon endroit..
Voila, en composant un morceaux, me suis attaqué au solo. A la fin je place une penta "complète" c'est à dire :

15-12-------------------------------
------15-12-------------------------
------------14-12-------------------
------------------14-12-------------
------------------------14-12-------
------------------------------15-12-

et je trouve que ça fait une bonne cloture de solo. Seulement j'ai toujours remarqué que les penta étaient utilisée dans les solo par petit bout, ou changée, mais jamais utilisée sur les six cordes en entier. Alors je me suis demandé si cela ne ferait pas trop "recraché la méthhode" banalement dans mon solo.. Au sens que c'est n'est pas vraiment improvisé mais je trouve que ça donne plutôt bien et cela joue parfait avec le rythme..
Vous en pensez quoi vous ?

Ben, perso, j'aime pas trop les gammes recrachées comme ça en entier, mais si ça sonne avec le morceau que tu as composé, c'est bien là l'essentiel !!
Bonne gratte, Free Chet. smiley-guitar

mr_dame

Artiste très motivé
1 photo
432 messages
c'est un scandale!

deni_bar

Au Hit Parade
Petit tabber
1599 messages
mr_dame
mr_dame a écrit :
c'est un scandale!
icon_cheesygrin
Suis d'accord avec Free Chet quand même (comme toujours, d'ailleurs! wink )

Ouai, c'est bien ce que je pensais aussi, ça fait trop recraché. Pourtant ça donnait vraiment bien ! Mais je vais voir pour travailler ça. Merci de vos réponses..

Tu as le plan rock'n roll par exelence, très utilisé des floyds ou de led zep :

-------12-15-----------------------------------------
-----12-----15-12------------------------------------
-15b1------------15-12---12--------------------------
----------------------14----14-12----12--------------
----------------------------------14----14-12---12---
----------------------------------------------14-----

Je te le ressort de tête, mais je croit que c'est ca. En tout cas tu retrouve beaucoup ce genre de descente de penta dans le rock'n roll. A jouer très rapidement cela va de soit. Le solo de stairway, confortably numb heartbreaker et tout plein plein d'autre sont à base de ça.

aria35

Au Hit Parade
1 photo
1589 messages
slt je peux pas t'aider mais moi ma penta je la fais comme ça
-15--12--------------------------------------
-------15--12--------------------------------
-------------14---12-------------------------
--------------------14--12-------------------
---------------------------14--13--12--------
---------------------------------------15---12( ça fait un son bluesy)
smiley-guitar

pacifeaste

Artiste motivé
209 messages
aria35
aria35 a écrit :
slt je peux pas t'aider mais moi ma penta je la fais comme ça
-15--12--------------------------------------
-------15--12--------------------------------
-------------14---12-------------------------
--------------------14--12-------------------
---------------------------14--13--12--------
---------------------------------------15---12( ça fait un son bluesy)
smiley-guitar


C'est la pentatonique Blues mais comme tu nous la montres il manque une note, ça donnerait plutôt ça :


-15--12-----------------------------------------------
--------15--12----------------------------------------
---------------15--14---12----------------------------
---------------------------14--12---------------------
----------------------------------14--13--12----------
---------------------------------------------15---12--



Et comme l'ont dit les autres, placer une descente de gamme brute, ça donne bof... L'idée est de faire comme l'a suggéré Dreamslayer, c'est-à-dire "pimenter" un peu ta descente, la personnaliser pour que ça rende mieux.

captnicetea

Artiste en devenir
457 messages
Salut, moi je pense qu'il ne faut pas te poser tant de questions!!!
Tu joue comme tu le sens et tant que ca sonne, c'est l'essentiel!!! smiley-guitar

Par contre ca dépent du style que tu joue, ma c'est vrai que ca sonne carément mieux si tu rentre quelques bends et notes blues dans ta descente(histoire de pimenter un peu)
Mais bon aprés c'est quand même ta musique et c'est toi qui vois...
bonne gratte!!!

Les effets de la main gauche sont (tels que les bend) sont un poil difficile à placer dans une descente plutôt rapide.. Mais j'ai trouvé une alternative qui sonne aussi bien mais qui ne fait pas trop "recraché de la méthode" (en plus j'ai même pas de méthode ^^ icon_cheesygrin )..

bilbaroudeur

1 message
il a raison
pas la peine de se poser tant de questions a propos de la penta
tte facon le mieux c'est de creer quelque chose c'est ca la musique...




>> Plan du Forum Solfège | suivi de la discussion | Tags : solo, les, trouve, cela, penta, utilis, remarqu, toujours, pentatonique



+