Tablatures flte ^^

close
FILTRES DE LA RECHERCHE

Est-ce que vous auriez un moyen lgal de faire passer des choses qui me permettraient de jouer stairway to heaven la flte ?? un genre de tablatures pour flte quoi icon_cheesygrin icon_cheesygrin merci wink

a dpend... ce serai pour une flte bec ? Parce que mon avi, a existe pas ou alors c'est trs rare.

donner les notes sur une tablature que tu retranscris wink
j'ai ca sur GP mais par contre ca par l'air tres jouable seul.. ou si cela forme un accord, jouer la tonique je pense
E||------------------|------------------|------------------|
B||------------------|------------------|------------------|
G||------------------|------------------|------------------|
D||------------------|------------------|------------------|
A||------------------|------------------|------------------|
E||------------------|------------------|------------------|



------------------------|--12------------------|--8-------------------|
------------------------|--13------------------|--10--------10--------|
------------------------|--9-------------------|--9---------7---------|
------------------------|----------------------|----------------------|
--10--12--12------------|--12--------11--------|--10--------9---------|
------------------------|----------------------|----------------------|



--8-----------------|--10--12--12------------|--------------------|
--10----------------|--12--13--13------------|--5--------7--------|
--------------------|------------------------|--5--------7--------|
--10----------------|------------------------|--------------------|
--8-----------------|--12--12--12------------|--3--------5--------|
--------------------|------------------------|--------------------|



--5----3------------3--|--3--------3--------|--7--5--5------------|
----------6--5------3--|--5--------3--------|--8--7--7------------|
--5----7-----5---------|-----------4--------|--7--7--7------------|
--3----3-----2------5--|--5-----------------|---------------------|
-----------------------|--------------------|---------------------|
-----------------------|--------------------|---------------------|



---------------------------|--5----8--7--8------10--|--12--------10--------|
--------10--8--8--7--5--3--|------------------------|----------------------|
--9------------------------|--5----7--7--9----------|--12--------11--------|
--10----10--9--9--7--5--4--|--3-------5--7----------|--10--------12--------|
---------------------------|------------------------|----------------------|
---------------------------|------------------------|----------------------|



------------------------|----------------------|---------------------|
--8---10--10------------|----------------------|---------------------|
--9---10--10------------|----------------------|---------------------|
--10--10--10------------|----------------------|---------------------|
------------------------|--12--------11--------|--10--------9--------|
------------------------|----------------------|---------------------|



-------------------|------------------------|--12------------------|
-------------------|------------------------|--13------------------|
-------------------|------------------------|--9-------------------|
-------------------|------------------------|----------------------|
--8----------------|--10--12--12------------|--12--------11--------|
-------------------|------------------------|----------------------|



--8-------------------|--8-----------------|--10--12--12------------|
--10--------10--------|--10----------------|--12--13--13------------|
--9---------7---------|--------------------|------------------------|
----------------------|--10----------------|------------------------|
--10--------9---------|--8-----------------|--12--12--12------------|
----------------------|--------------------|------------------------|



----------------------|---------------------------|----------------------|
----------------------|---------------------------|----------------------|
----------------------|---------------------------|----------------------|
--10--------12--------|--12----10--9--10------12--|--14--------12--------|
----------------------|---------------------------|----------------------|
----------------------|---------------------------|----------------------|



------------------------|--------------------------------|
------------------------|--------13--12--12--10----------|
------------------------|--12--------------------12--11--|
------------------------|--10------------12--------------|
--10--12--12------------|--------------------------------|
------------------------|--------------------------------|



------------------------|--12--------10--------|-----------------------|
--10----12----13--------|----------------------|--8--10--10------------|
--10----------14--------|--12--------11--------|--9--10--10------------|
--10--------------------|--10--------12--------|--9--10--10------------|
--------------12--------|----------------------|-----------------------|
------------------------|----------------------|-----------------------|



--12------------------|--8-------------------|--8-----------------|
--13------------------|--10--------10--------|--10----------------|
--9-------------------|--9---------7---------|--------------------|
----------------------|----------------------|--10----------------|
--12--------11--------|--10--------9---------|--8-----------------|
----------------------|----------------------|--------------------|



--10--12--12------------|--12------------------|--8-------------------|
--12--13--13------------|--13------------------|--10--------10--------|
------------------------|--9-------------------|--9---------7---------|
------------------------|----------------------|----------------------|
--12--12--12------------|--12--------11--------|--10--------9---------|
------------------------|----------------------|----------------------|



--8-----------------|--10--12--12------------|------------------|
--10----------------|--12--13--13------------|------------------|
--------------------|------------------------|------------------|
--10----------------|------------------------|------------------|
--8-----------------|--12--12--12------------|------------------|
--------------------|------------------------|------------------|


aprs c'ets chiant de trouver chaque fois la tonique et tout..




>> Plan du Forum Instruments vent | suivi de la discussion | Tags : tablatures, merci, genre, heaven, stairway, jouer, permettraient, choses, des



+