PANTHAGONIQUE pour basse

close
FILTRES DE LA RECHERCHE

Bonjour je rechercherais les tablature des panthagoniques pour basse merci de m aider maitre maitre maitre maitre maitre maitre maitre maitre maitre maitre maitre maitre maitre maitre maitre maitre maitre maitre maitre maitre maitre maitre maitre maitre maitre maitre maitre maitre

miliouz

Sous Dieu du Forum
Yoda...Tabber
4 photos
4243 messages
c'est la meme chose pour toutes les notes de depart!!!

penthatonique basse


miliouz
Piste 1



pentha majeure en sol T-T-1,5T-T-1,5T-T-T-1,5T...
E E E E E E E E
G||--------------------0------------------------------------------2---4--|-----|
D||------------0---2---5------------------------------------------7---9--|-----|
A||-----0--3---5---7--10-----------------------------------------12--14--|-----|
E||--3--5--8--10--12--15-----------------------------------------17--19--|-----|


-----|-----|-----|
-----|-----|-----|
-----|-----|-----|
-----|-----|-----|


pentha mineure en sol 1,5T-T-T-1,5T-T1,5T-...
E E E E E E E E
--------------------0---3---5-------------------------------------------|-----||
----------------3---5---8--10-------------------------------------------|-----||
-----1--3---5---8--10--13--15-------------------------------------------|-----||
--3--6--8--10--13--15--18--20-------------------------------------------|-----||




Biouman Force 4 http://monstersgame.fr/?ac=vid&vid=18012199
n'empeche, faudrait enlever le droit de vote aux cons...



>> Plan du Forum Solfège | suivi de la discussion | Tags : basse, panthagonique, rechercherais, bonjour, les, tablature, aider, merci, panthagoniques



+