SOLOS!!


nouveau message Répondre
Recherche

#
alors voila que diriez vous de déposer vos solos ici!!! sa ferais un topic officiel pour les solos ce qui permetterais de s'en sortir plus facilement wink en plus y a certains ( comme moi) qui arrive pas à trouver les solos dans les chanson à l'oreille donc comme sa on saurais directement où aller pour trouver les solos!!!!! icon_cheesygrin

#
oui, pourquoi pas. mais quand il y aura trop de pages, ce sera la galère pour trouver le solo recherché.

#
Pour cela il te suffit de tenir une liste à jour en première page de ce post et de rajouter au fur et à mesure les solos qui sont déposés en in diquant la page ou ils se trouvent !!! Facile non !!! wink
Free Chet. smiley-guitar

#
Je commence

E||--------10--9--8--7--------------|------------------------------------|
B||--------10-------------10--8--7--|--10g12----10--8--7-----------------|
G||---------9-----------------------|---------------------9g11----9--10--|
D||--12-----------------------------|------------------------------------|
A||---------------------------------|------------------------------------|
E||---------------------------------|------------------------------------|



-----------|----------------------------------------|
-----------|--------------------8p--7-----7---------|
--L--------|--------------7--9---------9-----9p--7--|
-----------|--------7--9----------------------------|
-----------|--x--9----------------------------------|
-----------|----------------------------------------|


----------------------------------|--------------------------------------|
----------------------------------|------------------------8s--7--8--10--|
-----7--9p--7--9--L-----9p--7-----|---------------------9----------------|
--9----------------------------9--|--8-----------8--11-------------------|
----------------------------------|--------x--9--------------------------|
----------------------------------|--------------------------------------|


--7--9--10s--12--12--L----10p--9--6--|--6g7----9--10--10g14--10--L--12h--|
-------------------------------------|-----------------------------------|
-------------------------------------|-----------------------------------|
-------------------------------------|-----------------------------------|
-------------------------------------|-----------------------------------|
-------------------------------------|-----------------------------------|


--10------------------------|------------------------10------------------|
------12--10----------------|----------------10--12------12--10----------|
--------------11--L---------|------------11----------------------11------|
----------------------------|--x--9--12------------------------------12--|
----------------------------|--------------------------------------------|
----------------------------|--------------------------------------------|



------------------------------|------------10--12--12p--10------12p--10------|
------------------------------|-----11g12-------------------12-----------12--|
------------------------------|----------------------------------------------|
--11--9--7s--9--11--L---------|----------------------------------------------|
------------------------------|----------------------------------------------|
------------------------------|----------------------------------------------|



--12p--10------10--------------12p--10------|
-----------12------11g12--L-------------12--|
--------------------------------------------|
--------------------------------------------|
--------------------------------------------|
--------------------------------------------|


--------------------------------------------|
--11----11p--10-------------------------10s-|
-----------------12--10-----8g9-------9-----|
------------------------------------8-------|
--------------------------------------------|
--------------------------------------------|


---------------------------------------|----------10----------------------|
--11--10-------------------------------|------10------10------------------|
----------12p--10--9--L-----x--9--10s--|--11--------------11---------7g9--|
---------------------------------------|----------------------12----------|
---------------------------------------|----------------------------------|
---------------------------------------|----------------------------------|


-------------------------|-------------------------------|
-------------------------|-----------7--7g8--7-----5g6h--|
--7-----7--8--L----------|-----7--9----------------------|
-----9----------------7--|--9----------------------------|
-------------------------|-------------------------------|
-------------------------|-------------------------------|


-------------------------|
--5----------------------|
-----7--6--9--L-------x--|
----------------------x--|
----------------------x--|
-------------------------|


c'est sur une compo qui s'appelle "récif cubain", la grille est
brkpartstart D6 brkpartend brkpartstart D6 brkpartend brkpartstart C#m6 brkpartend brkpartstart F7 brkpartend
brkpartstart Bm7 brkpartend brkpartstart D/F# brkpartend brkpartstart E9 brkpartend brkpartstart A7 brkpartend
brkpartstart G brkpartend brkpartstart G brkpartend brkpartstart Gm6 brkpartend brkpartstart Em7/5b brkpartend
brkpartstart D/F# brkpartend brkpartstart Bm7 brkpartend brkpartstart E9 brkpartend brkpartstart A6 A7+ brkpartend

#
ok je veux bien tenir une liste mais le problème c'est que je sais pas comment faire pour mettre un post en débute de 1ere page et le mettre à jour au fur et à mesur donc un petit peu d'aie et c'est parti!!! ( au fait , "le récif cubain c'est en forme )

#
C'est pas difficile tu édite ton premier post en cliquant sur le bouton éditer en haut et à droite de ton post, et tu peux alors rajouter ce que tu veux à ton post !! icon_cheesygrin wink

#
bump ok alors voila la liste des solo présents sur ce topic:

- " récif cubain " page 1

#
quelqu'un aurait le solo de Mr Bobby de Manu Chao ? ?


nouveau message Répondre Recherche


Répondre à cette discussion >>

plan Plan du Forum Tablatures||Tags : solos, les, comme, trouver, plus, oreille, ferais, topic, officiel