C'est l'intro de quoi SVP ???

close
FILTRES DE LA RECHERCHE


Petit causeur
16 messages
Bonjour
Quelqu'un pourrait-il me dire de quoi ceci est l'intro ? smiley-guitar
e ---------0-2-5-4-4-2-4-4-2-4----------0-2-5-4-4-2-4-4-2-4
g 0-2-3------------------------------0-2-3---------------------------
d -------------------------------------------------------------
a -------------------------------------------------------------
E --------------------------------------------------

e ----------0-4-5----------0-4-5----------0----------------------
g 0-2-3------------0-2-3---------0-2-3---2-0------------------
d ----------------------------------------------------2----------------
a --------------------------------------------------
E --------------------------------------------------


God of Partoch
Grand Tabber
1 photo
17917 messages
il manque une corde à ta guitare....


Petit causeur
16 messages
ça va mieux comme ça ?
e ---------0-2-5-4-4-2-4-4-2-4----------0-2-5-4-4-2-4-4-2-4
b 0-2-3------------------------------0-2-3---------------------------
g -------------------------------------------------------------
d -------------------------------------------------------------
a -------------------------------------------------------------
E --------------------------------------------------


e ----------0-4-5----------0-4-5----------0----------------------
b 0-2-3------------0-2-3---------0-2-3---2-0------------------
g ----------------------------------------------------2----------------
d --------------------------------------------------
a --------------------------------------------------
E --------------------------------------------------

La culture c'est comme la confiture : moins on en a, plus on l'etale . wink


God of Partoch
Grand Tabber
1 photo
17917 messages
oui ! et c'est un air que je connais... mais... smyleybleu j'ai la mémoire qui flanche... dès que ça me revient je te dis icon_cheesygrin


God of Partoch
Grand Tabber
1 photo
17917 messages
ça serait pas un titre des Beatles ?....


God of Partoch
Grand Tabber
1 photo
17917 messages
Rolling Stones - She's a rainbow - album Their Satanic Majestic's Request (1967)

mais j'avoue icon_redface j'ai pas trouvé toutes seule... merci à Las pour son aide wink


icon_cheesygrin Une grande communauté Partoch ! J'ai beaucoup de morceaux des Stones dans les doigts mais les titres ......1967....A long time ago !


Petit causeur
16 messages
Ok merci les zicos, il me semblait bien reconnaitre leur patte mais impossible de mettre un nom dessus. C'est super partoch, y'a qu'a demander.Quand j'aurai un peu de temps, je tape le reste et je dépose la tab . bravo maitre avec ,c'est promis 6 cordes sur ma gratte wink

Quelqu'un peut-il me dire le tire du morceau dont l'intro est:

E/----------4----4----4----4----4----4----4
B/--------5----5----5----5----4----4----4--
G/-----------------------------------------
D/----------------------------------------- ...
A/-----------------------------------------
E/-----------------------------------------

merci d'avance!


God of Partoch
Grand Tabber
1 photo
17917 messages
tu aurais pas quelques notes de plus ?... c'est faible comme indice !

la premiere idée qui me vient c'est where is my mine...mais je n'en suis pas sur...
en tout cas je connais se morceau


En effet , Placebo , très bonne reprise !
Mais où ai je la tête ?
icon_cheesygrin

ca c'est les PIXIES ..... where is my mind et elle fini comme ceci

e--4-4-4-4-4-4-4
b-5-5-5-5-5-4-4-4-5-5-4-5

a plus

Merci tout le monde wink smiley-guitar






>> Plan du Forum Tablatures | suivi de la discussion | Tags : ----------, intro, ceci, ---------, dire, pourrait-il, svp, bonjour, quelqu

+