Problème tab faciles et accords


nouveau message Répondre
Recherche

#
Bonjour. Violà je surfais sur les tab faciles que l'on peu trouver sur le site et j'en ai marre lol. J'en ai marre de trouver que des tab avec l'air sur une corde. Je vais sur les moyennes mais c'est déjà beaucoup plus dur ! Je trouve que l'air sur une corde ca va 5 minutes mais voilà quoi. sad

Ensuite je trouve les choses comme cela :

Am F C G
listen to your heart , when he's calling for you
Am F C G
listen to your heart , there's nothing else you can do

C'est bien gentil mais avec ma folk je fais un accord, pis une seconde après un autre. Pis au final ca va si on chante mais c'est pas folichon. Il faut répéter l'accord Am par exemple jusqu'au F ? Sinon ca laisse un grand vide. smyleybleu Pas obligé sur cette chanson mais celle-ci par exemple :

Dm
I know you think that I shouldn't still love you
Am
I'll tell you that
Dm
But if I didn't say it
Well, I'd still have felt it
Am
Where's the sense in that?

Merci.

#
ca depend des chansons mais dans la guitare y'a pas que la main gauche, y'a aussi la main droite (donc la rythmique!!!), il faut que tu ecoutes la chanson et bien entendu c'est pas toujours un accord toutes les secondes, ca se base souvent sur gratter en descendant sur le temps et gratter en remontant a contretemps. tu verras que la rythmique c'est pas tout le temps que des noires... smiley-guitar

#
ok donc par exemple pour dido le Ré mineur je le grattouille pas qu'une fois sur cet exemple ?

Dm
I know you think that I shouldn't still love you

merci

#
C'est exactement ca icon_cheesygrin
apres je connais pas la rythmique de cette chanson désolé

#
Dans ce genre de tablature en faite tu dois effectivement gratter l'accord écrit... jusqu'a l'accord suivant ! Donc plus ou moins longtemps et donc plus ou moins d'aller-retour, suivant les tab's !

#
ahhh merci les gars. Je me disais bien aussi que ca faisait ridicule sinon wink

bravo smiley-guitar

#
Sinon je suis parti chercher Every Breath You Take. Je trouve principalement deux versions... smyleybleu Je sais pas laquelle est la meilleure. Personellement j'ai essayé la première mais je m'arrache la main wink


E-------------------------------------------------------
B-------------------------------------------------------
G------------6-------------------6----------------------
D-------9------9----9-------9------9----9---------------
A-----7----7------7-------7----7------7-----------------
E---5-------------------5-------------------------------


La seconde :

e--------------------|-----------------|-----------------||
b------------0-------|-----------------|---------3-------||
g------2-------2---2-|---------0-------|-----5-----5---5-||and repeat
d----0---0-------0---|-----4-----4---2-|---5---5-----5---||over and
a--------------------|---2---2-----2---|-3---------------||over
e--3-----------------|-0---------------|-----------------||

Vous en pensez quoi ? Merci.
smile

#
perso je connais pas la chanson sad mais jtrouve que c'ets quand même assez mal écrit smyleybleu !!!lol!!!

dnt smiley-guitar


nouveau message Répondre Recherche


Répondre à cette discussion >>

plan Plan du Forum Débutants||Tags : you, les, that, tab, air, faciles, par, corde, pis