Ze mystère of ze tablature INCONNUE... help!

close
FILTRES DE LA RECHERCHE

[jouer chaque mesure 4x, sauf la dernière]


(Em) (C) (Am) (D) (D)

|---0------|---0------|---0------|---2------||--------2~-|
|---0------|---1------|---1------|---3------||-----3-----|
|-------0--|-------0--|-------2--|-------2--||--2--------|
|----------|----------|----------|----------||-----------|
|---1------|---3------|---0------|---0------||-----------|
|----------|----------|----------|----------||-----------|


D'ailleurs j'en ai fait une petite variante. (Petite... ya UN accord de plus icon_cheesygrin)


[jouer chaque mesure 4x, sauf la dernière]

(Em) (C) (Am) (D) (G) (D) (D)

|--0------|--0------|--0------|--2------|--3------|--2------||--------2-|
|--0------|--1------|--1------|--3------|--0------|--3------||-----3----|
|------0--|------0--|------2--|------2--|------0--|------2--||--2-------|
|---------|---------|---------|---------|---------|---------||----------|
|--1------|--3------|--0------|--0------|---------|--0------||----------|
|---------|---------|---------|---------|--3------|---------||----------|

Puis gratter en rythme

Em - C - Am - D - G - D

et finir:

|--------2~-||
|-----3-----||
|--2--------||
|-----------||
|-----------||
|-----------||


Voila alors ça c'est un morceau qu'un pote m'a montré, si qqun pouvait me donner le nom du morceau que je puisse l'ajouter sur le site. c'est sympa =)


God of Partoch
3 photos
7440 messages
Tu devrais editer ton premier message en tenant compte de tes modifications et supprimer le reste, ca fait fouilli et on comprends pas grand chose wink

C'est mieux? wink wink

bump Désolé j'ai essayé de la jouer mais impossible de te donner un nom pour le moment.
Mais je continue a chercher...


God of Partoch
3 photos
7440 messages
oui c'est mieux icon_cheesygrin
je connais ce truc, mais alors la, impossible de retrouver c'est quoi hum






>> Plan du Forum Tablatures | suivi de la discussion | Tags : morceau, sauf, derni, petite, mesure, chaque, jouer, plus, myst

+