Parfum de Jade

close
FILTRES DE LA RECHERCHE

fredo1400

6 messages
Parfum de Jade, guitares d'automne,
Le theme .


La tab



E |-------------------------------|----------------------------|
B |--------0---------------------|--------0-------------------|
G |-----------0--------0--------|-----------0--------0-------|
D |-----2-----------4-----4----|-----2-----------4-----4----|
A |-------------------------------|-3-------------------------|
E |--0---------------------------|----------------------------|


--------------------------------|----------------------------|
--------0----------------------|--------0-------------------|
-----------0--------0---------|-----------0--------2--0----|
-----2-----------4-----4-----|-----4-----------4----------|
--4----------------------------|--6-------------------------|
--------------------------------|----------------------------|


-------------------------------|----------------------------|
--------0---------------------|--------0-------------------|
-----------0--------0--------|-----------0--------0-------|
-----2-----------4-----4----|-----2-----------4-----4----|
-------------------------------|--3-------------------------|
--0---------------------------|----------------------------|


-------------------------------|----------------------------|
--------0---------------------|--------0-------------------|
-----------0--------0--------|-----------0--------2--0----|
-----2-----------4-----4----|-----4-----------4----------|
--4---------------------------|--6-------------------------|
------------------------------|----------------------------|


--------------------12L------|--12---||
-----------0--------12L-----|--12---||
--------0-----------12L-----|--12---||
-----2-------------------------|-------||
-------------------------------|-------||
--0--------------12---------|-------||


Merci a vous

Webby
fredo1400

6 messages
Glochides

Le theme




La tablature



Rem ( X X 7 7 6 X)
E |------------------------------|------------------------------|
B |------------------------------|------------------------------|
G |--------------------------- --|------------------------------|
D |--7-----7--7-----7--7-------|--7-----7--7-----7--7-------|
A |-----5--------5---------5----|-----5--------5--------5-- --|
E |------------------------------|------------------------------|


Sib9 (X X 8 5 6 X ) Fa#M7-5b (X 1 4 3 1 1)
E |------------------------------|----------------------------||
B |------------------------------|----------------------------||
G |------------------------------|----------------------------||
D |--7--8-----8-----8--8-------|--8--4-----4-----4--4-------||
A |--------5----------------5---|--------1--------------1----||
E |------------------------------|----------------------------||


Rem ( X X 7 7 6 X)
E |-----------------------------|------------------------------|
B |-----------------------------|------------------------------|
G |-----------------------------|------------------------------|
D |-4--7-----7-----7--7-------|--7-----7--7-----7--7-------|
A |-------5-----5---------5----|-----5--------5--------5-- --|
E |---------------------------- -|------------------------- ----|


Sib9 (X X 8 5 6 X ) Fa#M7-5b (X 1 4 3 1 1)
E |--------------------------- --|-----------------------------|||
B |------------------------------|-----------------------------|||
G |------------------------------|-----------------------------|||
D |--7--8-----8-----8--8-------|--8--4-----4-----4--4------|||
A |--------5----------------5---|--------1-----1--------1---|||
E |---------------5----------- --|----------------------------|||



Secondes guitares

Rem
E ||---------------------------|----------------------------|
B ||----------6----------------|-----------6----------------|
G ||-------7-------------------|--------7-----------7-------|
D ||----7----------------------|-----7-----------7----------|
A ||---------------------------|----------------------------|
E ||---------------------------|----------------------------|

Sib9 Fa#M7-5b
E || ----------------------------|---------------------------|||
B || -----------6----------------|-----------1---------------|||
G || --------5-------------------|--------3-----------3-----o|||
D || -----8----------------------|-----4-----------4--------o|||
A || ----------------------------|---------------------------|||
E || ----------------------------|---------------------------|||


Solo Guitare

Rem
E ||-13-10----13-10----13------|--13-10----13-10----13------|
B ||------------------------------|----------------------------|
G ||-----------------------------|----------------------------|
D ||-----------------------------|----------------------------|
A ||-----------------------------|----------------------------|
E ||-----------------------------|----------------------------|


Sib9 Fa#M7-5b
E || --14-----------------v-------|----------|||
B || -----11s10------------------|----------|||
G || -----------11s10------------|----------|||
D || -----------------10s4L------|--4-------|||
A || -----------------------------|----------|||
E || -----------------------------|----------|||

fredo1400

6 messages
Glochides

Le theme




La tablature



Rem ( X X 7 7 6 X)
E |------------------------------|------------------------------|
B |------------------------------|------------------------------|
G |--------------------------- --|------------------------------|
D |--7-----7--7-----7--7-------|--7-----7--7-----7--7-------|
A |-----5--------5---------5----|-----5--------5--------5-- --|
E |------------------------------|------------------------------|


Sib9 (X X 8 5 6 X ) Fa#M7-5b (X 1 4 3 1 1)
E |------------------------------|----------------------------||
B |------------------------------|----------------------------||
G |------------------------------|----------------------------||
D |--7--8-----8-----8--8-------|--8--4-----4-----4--4-------||
A |--------5----------------5---|--------1--------------1----||
E |------------------------------|----------------------------||


Rem ( X X 7 7 6 X)
E |-----------------------------|------------------------------|
B |-----------------------------|------------------------------|
G |-----------------------------|------------------------------|
D |-4--7-----7-----7--7-------|--7-----7--7-----7--7-------|
A |-------5-----5---------5----|-----5--------5--------5-- --|
E |---------------------------- -|------------------------- ----|


Sib9 (X X 8 5 6 X ) Fa#M7-5b (X 1 4 3 1 1)
E |--------------------------- --|-----------------------------|||
B |------------------------------|-----------------------------|||
G |------------------------------|-----------------------------|||
D |--7--8-----8-----8--8-------|--8--4-----4-----4--4------|||
A |--------5----------------5---|--------1-----1--------1---|||
E |---------------5----------- --|----------------------------|||



Secondes guitares

Rem
E ||---------------------------|----------------------------|
B ||----------6----------------|-----------6----------------|
G ||-------7-------------------|--------7-----------7-------|
D ||----7----------------------|-----7-----------7----------|
A ||---------------------------|----------------------------|
E ||---------------------------|----------------------------|

Sib9 Fa#M7-5b
E || ----------------------------|---------------------------|||
B || -----------6----------------|-----------1---------------|||
G || --------5-------------------|--------3-----------3-----o|||
D || -----8----------------------|-----4-----------4--------o|||
A || ----------------------------|---------------------------|||
E || ----------------------------|---------------------------|||


Solo Guitare

Rem
E ||-13-10----13-10----13------|--13-10----13-10----13------|
B ||------------------------------|----------------------------|
G ||-----------------------------|----------------------------|
D ||-----------------------------|----------------------------|
A ||-----------------------------|----------------------------|
E ||-----------------------------|----------------------------|


Sib9 Fa#M7-5b
E || --14-----------------v-------|----------|||
B || -----11s10------------------|----------|||
G || -----------11s10------------|----------|||
D || -----------------10s4L------|--4-------|||
A || -----------------------------|----------|||
E || -----------------------------|----------|||

denis-px

God of Partoch
Petit tabber
1 photo
15352 messages
Modérateur
c'est très gentil merci à toi mais pour des raisons de clarté et de lisibilité du site les tabs sont sous une section à part du fofo que je t'invite à découvrir ici pour les dépots https://www.partoch.com/tablature/depot.php
et là pour les consultations https://www.partoch.com/tablature/




>> Plan du Forum Compositions | suivi de la discussion | Tags : -----------, --------, -----, parfum, jade, --------------, merci, tab, automne



+